a b c d e f g h i j k l m n o p q r s t u v w x y z 0-9

Esperandome

Las Pastillas Del Abuelo

			
Intro:

e---------3-------|--------0-----|--23--2--------|
B-----------3---3-|-----------1--|-----------3-----|
G-----0-------0---|--------------|--------------2--|
R-----------------|-----2--------|-----------------|
A-----------------|--3-----------|-----------------|
E--3----3---------|--------------|-----------------|

        G              C             RE/REsus        X2

e---------3--------|--------0----|--23--2--------|
B-------3-----3----|-----------1-|-----------3-----|
G-----0---------0--|-------------|--------------2--|
R------------------|-----2-------|-----------------|
A------------------|--3----------|-----------------|
E--3---------------|-------------|-----------------|

        G              C             RE/REsus

G               C     D     G
Mirando el rio manso me quede
                 C    D
sentado en la ribera solo, solo

e---------3-------|--------0-----|--23--2--------|
B-----------3---3-|-----------1--|-----------3-----|
G-----0-------0---|--------------|--------------2--|
R-----------------|-----2--------|-----------------|
A-----------------|--3-----------|-----------------|
E--3----3---------|--------------|-----------------|

G               C    D        G
en la noche buscandote mi amor
                   C       D
la luna hizo un agujero y me quede solo


e---------3-------|--------0-----|--23--2--------|
B-----------3---3-|-----------1--|-----------3-----|
G-----0-------0---|--------------|--------------2--|     X2
R-----------------|-----2--------|-----------------|
A-----------------|--3-----------|-----------------|
E--3----3---------|--------------|-----------------|

       G              C             RE/REsus

C             D      G               C
iluminando el agua, asi pude verte mecer
C             D                  G                C  D
en el vaiven de las olas mi amor estabas igual que ayer
G      C    D       G      C    D         G
quizas esperandome, quizas ayudandome



e---------3-------|--------0-----|--23--2--------|
B-----------3---3-|-----------1--|-----------3-----|
G-----0-------0---|--------------|--------------2--|     X2
R-----------------|-----2--------|-----------------|
A-----------------|--3-----------|-----------------|
E--3----3---------|--------------|-----------------|


Puente: F /  C  /  G  /  G   X4

G               C D
sentado en la ribera me quede
G                C D
sentado en la ribera solo, solo

e---------3-------|--------0-----|--23--2--------|
B-----------3---3-|-----------1--|-----------3-----|
G-----0-------0---|--------------|--------------2--|
R-----------------|-----2--------|-----------------|
A-----------------|--3-----------|-----------------|
E--3----3---------|--------------|-----------------|

G               C    D
en la noche buscandote mi amor
 G                  C          D
la luna hizo un agujero y me quede solo

e---------3-------|--------0-----|--23--2--------|
B-----------3---3-|-----------1--|-----------3-----|
G-----0-------0---|--------------|--------------2--|     X2
R-----------------|-----2--------|-----------------|
A-----------------|--3-----------|-----------------|
E--3----3---------|--------------|-----------------|

C             D      G           C
iluminando el agua, asi pude verte mecer
C             D                  G               C  D
en el vaiven de las olas mi amor estabas igual q ayer
G      C    D       G      C    D      G          C   D
quizas esperandome, quizas ayudandome, quizas contemplandome,
G       C   D          G
quizas esperandome...


e---------3-------|--------0-----|--23--2--------|
B-----------3---3-|-----------1--|-----------3-----|
G-----0-------0---|--------------|--------------2--|     X2
R-----------------|-----2--------|-----------------|
A-----------------|--3-----------|-----------------|
E--3----3---------|--------------|-----------------|

Fuente: tusacordes.com