a b c d e f g h i j k l m n o p q r s t u v w x y z 0-9

Labios Rotos

Zoe

			
EMPIEZA CON EL BAJO PERO SE PUEDE TOKAR ASI Y TAMBIEN SE ESCUCHA BN


E-------- X3
B--------
G--------
D-2--5--4
A-2--5--2
E-0--3--2

AQUI EMPIEZA CONLA GUITARRA ENTERA Y EL RASGUEO ES 2 ABAJO 2 ARRIBA 1 ABAJO 1 ARRIBA


E-0--3--2----0----2 X2
B-0--3--3----0----3
G-0--4--4----0----4
D-2--5--4----2----4
A-2--5--2----2----2
E-0--3--2----0----2

E-6--2--6--2--2--2 X2
B-7--2--7--2--4--3
G-8--3--8--3--4--4
D-8--4--8--4--4--4
A-6--4--6--4--2--2
E-6--2--6--2--2--2

E-6--2--1
B-7--2--1
G-8--3--2
D-8--4--3
A-6--4--3
E-6--2--1

E-0-0-0---------------------- X2
B--0-0-0-3-3-3-3-3-3-3-3-3---
G---0-0---4-4-4-4-4-4-4-4-4--
D----------5-5---4-4---4-4---
A----------------------------
E----------------------------

E-0--3--2----0----2 X2
B-0--3--3----0----3
G-0--4--4----0----4
D-2--5--4----2----4
A-2--5--2----2----2
E-0--3--2----0----2

E-6--2--6--2--2--2 X5
B-7--2--7--2--4--3
G-8--3--8--3--4--4
D-8--4--8--4--4--4
A-6--4--6--4--2--2
E-6--2--6--2--2--2

Fuente: Tusacordes