a b c d e f g h i j k l m n o p q r s t u v w x y z 0-9

Vienes Y Te Vas

William Luna

C
Am
F
Em
G
G#
			
 VIENES Y TE VAS

Intro:
   C                             Am
1]-3/0------3/0------3/0---------------------------------
2]-------3--------3-------3-3-3---------0---0-0/1--1-1-1-
3]--------------------------------2---2---2--------------
4]-----2--------2-------------------2--------------------
5]-3--------3--------3----3-3-3---0----------------0-0-0-
6]-------------------------------------------------------
   C                             Am
1]-3/0------3/0------3/0---------------------------------
2]-------3--------3-------3-3-3---------0---0-0/1--1-1-1-
3]--------------------------------2---2---2--------------
4]-----2--------2-------------------2--------------------
5]-3--------3--------3----3-3-3---0----------------0-0-0-
6]-------------------------------------------------------
   F                    Em
1]------------------------0---------
2]-------1-1--------1-1---0---------
3]-----2----------2-------0---2--0--
4]---3----------3---------2---------
5]-3----------3-----------2---2--2--
6]------------------------0---------
   F                    Em
1]------------------------0---------
2]-------1-1--------1-1---0---------
3]-----2----------2-------0---2--0--
4]---3----------3---------2---------
5]-3----------3-----------2---2--2--
6]------------------------0---------

Se repite el intro, pero hay una variacion en la 3ra estrofa:

   C                             Am
1]-3/0------3/0------3/0---------------------------------
2]-------3--------3-------3-3-3---------0---0-0/1--1-1-1-
3]--------------------------------2---2---2--------------
4]-----2--------2-------------------2--------------------
5]-3--------3--------3----3-3-3---0----------------0-0-0-
6]-------------------------------------------------------
   C                             Am
1]-3/0------3/0------3/0---------------------------------
2]-------3--------3-------3-3-3---------0---0-0/1--1-1-1-
3]--------------------------------2---2---2--------------
4]-----2--------2-------------------2--------------------
5]-3--------3--------3----3-3-3---0----------------0-0-0-
6]-------------------------------------------------------
   F                    Em
1]------------------------0--0-3-0----------------
2]-------1-1--------1-1---0--------3-0-0-------0--
3]-----2----------2-------0--------------2-0-2----
4]---3----------3---------2-----------------------
5]-3----------3-----------2-----------------------
6]------------------------0-----------------------
   F                    Em
1]------------------------0---------
2]-------1-1--------1-1---0---------
3]-----2----------2-------0---2--0--
4]---3----------3---------2---------
5]-3----------3-----------2---2--2--
6]------------------------0---------

C                         Am
Ay yo no quiero verme  contigo
C                       Am
no sabes cuanto sufro cariño
F                          [Em]-G
no se si soy feliz lejos de tiiiiii
F                       G 
o soy feliz estando contigo

C                          Am
Un día me amas luego me olvidas
C                          Am
un día me amas luego te olvidas
F                          [Em]-G
no se si soy feliz lejos de tiiiiii
F                       G 
o soy feliz estando contigo

F                 G#
Vienes vienes y te vas
F                 G#
vienes vienes y te vas
F                 G#
vienes vienes y te vas
F                 G#
vienes vienes y te vas

Solo:
   C                     Am
1]---0-0-0-0-3---------------------------------
2]-3-3-3-3-3-1-3/1-1-3-1-----------------------
3]-0-----------0-0-0-0-0--2-2-------2--2-2-2---
4]------------------------2-2-2---2----2-2-2---
5]------------------------------0--------------
6]---------------------------------------------
   C                     Am
1]---0-0-0-0-3---------------------------------
2]-3-3-3-3-3-1-3/1-1-3-1-----------------------
3]-0-----------0-0-0-0-0--2-2-------2--2-2-2---
4]------------------------2-2-2---2----2-2-2---
5]------------------------------0--------------
6]---------------------------------------------
   F                    Em
1]------------------------0--0-3-0----------------
2]-------1-1--------1-1---0--------3-0-0-------0--
3]-----2----------2-------0--------------2-0-2----
4]---3----------3---------2-----------------------
5]-3----------3-----------2-----------------------
6]------------------------0-----------------------
   F                    Em
1]------------------------0---------
2]-------1-1--------1-1---0---------
3]-----2----------2-------0---2--0--
4]---3----------3---------2---------
5]-3----------3-----------2---2--2--
6]------------------------0---------
   C                     Am
1]---0-0-0-0-3----------------------------------
2]-3-----------3/1-0-1-0------------------------
3]------------------------2-2-------2-2--2-2-2--
4]---2-2-2-2-2----------------2---2-------------
5]-3-----------3-3-3-3-3--0-0---0--------0-0-0--
6]----------------------------------------------
   C                     Am
1]---0-0-0-0-3----------------------------------
2]-3-----------3/1-0-1-0------------------------
3]------------------------2-2-------2-2--2-2-2--
4]---2-2-2-2-2----------------2---2-------------
5]-3-----------3-3-3-3-3--0-0---0--------0-0-0--
6]----------------------------------------------
   F                    Em
1]------------------------0--0-3-0----------------
2]-------1-1--------1-1---0--------3-0-0-------0--
3]-----2----------2-------0--------------2-0-2----
4]---3----------3---------2-----------------------
5]-3----------3-----------2-----------------------
6]------------------------0-----------------------
   F                    Em
1]------------------------0---------
2]-------1-1--------1-1---0---------
3]-----2----------2-------0---2--0--
4]---3----------3---------2---------
5]-3----------3-----------2---2--2--
6]------------------------0---------

 

Fuente: tusacordes.com