a b c d e f g h i j k l m n o p q r s t u v w x y z 0-9

Legalizenla

Viejas Locas

			


Es un arpegio, me parece q es asi ecuchen el tema y sale solo ja

   Lam              Mim             Rem
e-------0--------*-------0-------*------1-----1--------
b-----1---1------*-----0---0-----*----3---3-----3------
g-----------22---*-----------00--*--2------------2-----
d--2-------------*---2-----------*--0------------------
a--0-------------*---2-----------*---------------------
E--0-------------*---0-----------*---------------------

 Lam              Mim             Rem
e-------0--------*-------0-------*------1--------111---
b-----1---1------*-----0---0-----*----3---3------333---
g-----------22---*-----------00--*--2------------222---
d--2-------------*---2-----------*--0------------------
a--0-------------*---2-----------*---------------------
E--0-------------*---0-----------*---------------------

Legalizenla:
Lam      Mim      Rem

Legalizenla:
Lam      Mim      Rem

Legalizenla:
Lam      Mim      Rem
Lam                Mim
Hubo tiempos de guerra, tiempos de paz,
     Rem
hubo tiempo en que era ilegal.
       Lam           Mim
Pero hermano nuestra mente cambio,
     Rem
no podemos seguir con esa tradición.
Lam            Mim                   Rem
Son tiempos de cambio y el tiempo al mismo tiempo cambió.
Lam           Mim           Rem    Mim
Si hasta la terrible ley seca cayó.

Legalisenla... Lam Mim Oh Oh Rem...

Vos tenés conciencia de saber,
que está bien y que está mal
la policía debe llevarte si robás o asesinás,
pero no entiendo por qué no estoy en libertad,
sólo por fumar la hierba de la paz !!.

Legalizenla !!!
e--------8-7--------------------8-7--------------------------
b-----10-------10-----------10-------10---------6-6-6-6--6-8--6-5
g--9---------------9------9--------------9-------------------
d------------------------------------------------------------
a------------------------------------------------------------
e------------------------------------------------------------

-------8--7-----------------8-7---------------------------
----10------10----------10--------10--------6-6-6-6---6-8-
-9-------------9-----9----------------9-------------------
----------------------------------------------------------
----------------------------------------------------------
----------------------------------------------------------

---------------------------------------------------------------
--5-6--3-5-----------------------------------------------------
------------5-7--4-5---2-4---2-0-2---2-4-5---4-5-7---5-7-9---7-9-10--
---------------------------------------------------------------
---------------------------------------------------------------
---------------------------------------------------------------

--------8-7-------------------8-7-------------------------
----10--------10----------10-------10------8--666---88----
--9---------------9-----9--------------9------------------
----------------------------------------------------------
----------------------------------------------------------
----------------------------------------------------------
Legalízenla...

Si mis cigarros tienen otro relleno por qué me miras mal.
Si de la tierra crece hierba santa,
por que no la puedo fumar.
pagamos precios y riesgos muy caros para conseguir,
lo que la naturaleza nos dá nadie nos debería prohibir.
Yo canto esto para que me escuchen y se den cuenta
que hay mucha gente que no quiere estar presa por fumar hierba.
Somos una nueva raza, una nueva generación
Pongamos fin a esta tradición.

Fuente: tusacordes.com