a b c d e f g h i j k l m n o p q r s t u v w x y z 0-9

Recuerdos De Amor

Victor Y Leo

			
Intro  C   Am  C  Am  G

F#|------------------------------------------------------|
C#|--10-10-7-7---5-5-3-3s7-------------------------------|
A |------------------------------------------------------|
E |------------------------------------------------------|
B |------------------------------------------------------|
F#|------------------------------------------------------|
F#|------------------------------------------------------|

C#|--10-10-7-7----5-----------3--3s5--3-------------------|
A |------------------2h4---------------2------------------|
E |-------------------------------------------------------|
B |-------------------------------------------------------|
F#|-------------------------------------------------------|

F#|----------------------------------------------------------------------------------------|
C#|-----3-3---------------------------3-3--------------------------------------------------|
A |----------4-4-2-2-----------------------4-4-0-0-----------------------------------------|
E |----------------------4-4s7~-----------------------4-4s9~---------------7-9----9s11~----|
B |------------------------------------------------------------------------7---------------|
F#|----------------------------------------------------------------------------------------|


   Am
Tienes razón
 F
Que las palabras no resuelven muchas cosas
         C                       G
Pero es lo mejor, debemos conversar

  Am     F
Al final, nuestro caso no es distinto de otros casos
              C                G   G4 G
Que acabaron mal y debo confesar
         F                            G G4
Aunque sufrido ya, las noches que no estés
            C G7
Sufriré aún más.

   

       C                                        Dm
Necesito urgente que tú sepas de mis sentimientos
 G                                            Am
Llego a casa no te veo y tengo ganas de salir corriendo
   C                                        Dm
Siento que la soledad y el silencio me abrazan
 F                           G                 Am
Mi alegría pasó, solo el recuerdo de amor, no pasa.


(solo - diferente do primeiro solo)

C Am C Am G

F#|------------------------------------------------------|
C#|--10-10-7-7---5-5-3-3s7-------------------------------|
A |------------------------------------------------------|
E |------------------------------------------------------|
B |------------------------------------------------------|
F#|------------------------------------------------------|

F#|-------------------------------------------------------|
C#|--10-10-7-7----5-----------3--3s5--3-------------------|
A |------------------0h4----------------4-----------------|
E |-------------------------------------------------------|
B |-------------------------------------------------------|
F#|-------------------------------------------------------|

F#|----------------------------------------------------------------------------------------|
C#|-----3-3-------------------------------3-3----------------------------------------------|
A |----------4-4-0-0-------------0--4--0--------4-4-0-0------------------------------------|
E |----------------------4-5-4h5-------------------------0--4----------7-9----9s11~--------|
B |--------------------------------------------------------------------7-------------------|
F#|----------------------------------------------------------------------------------------|


  Am       F
Al final, nuestro caso no es distinto de otros casos
              C               G
Que acabaron mal y debo confesar
   F                                      G G4
Que aunque sufrido ya, las noches que no estés
               C G7
Sufriré aún más.

    C                                        Dm
Necesito urgente que tú sepas de mis sentimientos
 G                                               Am
Llego a casa no te veo y tengo ganas de salir corriendo
   C                                        Dm
Siento que la soledad y el silencio me abrazan
 F                                   G        Am  Em
Mi alegría pasó, solo el recuerdo de amor, no pasa
F                                   G        Am
Mi alegría pasó, solo el recuerdo de amor, no pasa

Fuente: Tusacordes