a b c d e f g h i j k m n o p q r s t x v w y z 0-9

Recuerdos De Amor

Victor Y Leo

			
e---3/5-5------------------3/5-5-----------------------
b---------7-7-5-5-3-5/7---------7-7-5-----3-3/5--3-----
g-------------------------------------2/4----------4---
d------------------------------------------------------
a------------------------------------------------------
e------------------------------------------------------


e------------------------------------------------------
b--3-3-----------------3-3-----------------------------
g------4-4-2-2-------------4-4-2-2---2/4----2-4-4/6----
d---------------4-4/7--------------4------4------------
a------------------------------------------------------
e------------------------------------------------------

Bm
Tienes razón
 G
Que las palabras no resuelven muchas cosas
            D
pero es lo mejor
        A
debemos conversar

Bm
Al final   e-------5/7-
           B-----3-----
           G---4-------
 G
nuestro caso no es distinto de otros casos

            D    e--------------
que acabaron mal B-------7------
                 G--7777---7----
                 D------------7-
          A
y debo confesar

            G
que aunque sufrido ya  e---5-----
                       B--3---3--
                       G---------

                   A
las noches que no estés  e---5-----
                         B--2---2--
                         G---------

            D                A               D
sufriré aún máaaaaaas        ahh.....!!!
         e--------------------------------------
         B----7---7---7---7----5---5---5---5----
         G--7---7---7---7----6---6---6---6---7--

                                    Em
Necesito urgente que tú sepas de mis sentimientos
         A
llego a casa no te veo
                        Bm
y tengo ganas de salir corriendo
D                                       Em
Siento que la soledad y el silencio me abrazan
     G
mi alegría pasó
          A
solo el recuerdo de amor
  Bm
no pasa.

                     D                     Bm
e--3/5-5------------------3/5-5----------------------
B--------7-7-5-5-3-5/7---------7-7-5-----3-3/5--3----
G------------------------------------2/4----------4--
D----------------------------------------------------
A----------------------------------------------------
E----------------------------------------------------

                   G            A                Bm
e------------------------------------------------------------------
B--3-3-----------------------------3-3-----------------------------
G------4-4-2-2------------2-2/4-2------4-4-2-2------------2-4-4/6--
D--------------4-4/5--4/5----------------------2-2/4----4----------
A------------------------------------------------------------------
E------------------------------------------------------------------

Bm
Al final   e-------7-5--3--
           B---5/7---------
           G---------------
  G
nuestro caso no es distinto de otros casos

            D    e--------------
que acabaron mal B-------7------
                 G--7777---7----
                 D------------7-
          A
y debo confesar

            G
que aunque sufrido ya  e---5-----
                       B--3---3--
                       G---------

                   A
las noches que no estés  e---5-----
                         B--2---2--
                         G---------

            D                A               D
sufriré aún máaaaaaas        ahh.....!!!
         e--------------------------------------
         B----7---7---7---7----5---5---5---5----
         G--7---7---7---7----6---6---6---6---7--


                                     Em
Necesito urgente que tú sepas de mis sentimientos
         A
llego a casa no te veo
                        Bm
y tengo ganas de salir corriendo
                      e--5/7-5-----------------------
                      B----------8-7---5-------------
                      G--------7---------7-6-6/7-----

D                                       Em
Siento que la soledad y el silencio me abrazan
     G
mi alegría pasó
          A
solo el recuerdo de amor
  Bm
no pasa.

D                                    Em
Necesito urgente que tú sepas de mis sentimientos
                                      e------------------
                                      B--5-----5---------
                                      G----7------7------
                                      D------9------9----
A
llego a casa no te veo
                        Bm
y tengo ganas de salir corriendo
D                                       Em
Siento que la soledad y el silencio me abrazan
                                         e------------------
                                         B--5-----5---------
                                         G----7------7------
                                         D------9------9----
     G
mi alegría pasó
          A
solo el recuerdo de amor
  Bm
no pasa.
    e--------------------------------
    B-------------------------2-2/3--
    G-----2-------------2-2/4--------
    D-------4-------2/4--------------
    A-2-5-------2/4------------------

   G
mi alegría pasó
          A
solo el recuerdo de amor

no pasa.

e---2----2-2--2---2----2-2--2-------2--
B---2/3--3-3--2---2/3--3-3--2------3---
G---4----4-4--4---4----4-4--4-----4----
D---4----4-4--4---4----4-4--4----4-----
A---2----2-2--2---2----2-2--2---2------
E---2----2-2--2---2----2-2--2--2-------<p>Fuente: tusacordes.com</p>