a b c d e f g h i j k m n o p q r s t x v w y z 0-9

Nada Es Normal

Victor Y Leo

			
Esta es la tablatura completa de la canción Nada es Normal de Víctor Y leo.

La tablatura esta buena, hay que tocarla mas o menos rápido, sino no suena
bien.
La tablatura tiene hammer on y pull off.

Para hacer un "hammer on", hay que pulsar una cuerda y luego
poner el dedo encima de la misma cuerda en algún espacio, por ejemplo:

|--0h1--|

Eso significa que hay que pulsar la cuerda al aire por que 0 significa al
aire, y luego de pulsarla, poner un dedo encima de la misma cuerda en el
primer espacio.

El "pull off" es el inverso al hammer, es pulsar una cuerda
en un espacio determinado y luego sacar el dedo hasta algún
espacio, por ejemplo:

|--2p0--|
Eso significa que hay que pulsar la cuerda en el segundo espacio y luego
sacar el dedo.

Para más información envíame un mensaje a fernando.fetis@hotmail.com
____________________
Introducción de la canción:

                   Am                           D

|-oh1p0---------|--------------0---------|-------2-----|
|-------0-----0-|-------1------------1---|-----3---3---|
|---------0h2---|-----2-----2------2-----|---2-------2-|
|---------------|---2-----2------2-----2-|-0-----------|
|---------------|-0------------0---------|-------------|
|---------------|------------------------|-------------|

                   G

|-oh1p0---------|--------------------------------------|
|-------0-----0-|-------0-----------0-----------0------|
|---------0h2---|-----0-----0-----0-----0-----0-----0--|
|---------------|---0-----------0-----------0----------|
|---------------|---------2-----------2------------2---|
|---------------|-3-----------3-----------3------------|

                   Am                           D

|-oh1p0---------|--------------0---------|-------2-----|
|-------0-----0-|-------1------------1---|-----3---3---|
|---------0h2---|-----2-----2------2-----|---2-------2-|
|---------------|---2-----2------2-----2-|-0-----------|
|---------------|-0------------0---------|-------------|
|---------------|------------------------|-------------|

                        G       Gsus          G

|-oh1p0---------|-------------|---------|------3-------|
|-------0-----0-|-------0-----|-2-----2-|------0-------|
|---------0h2---|-----0-----0-|-----0---|---0--0-------|
|---------------|---0---------|---0-----|-0----0-------|
|---------------|---------2---|---------|------2-------|
|---------------|-3-----------|-3-------|------3-------|

Primera parte de la canción:

              G               C                 Cmaj7

|--------------------------|-------------------|-------|
|--------0-----------0-----|-------1-----------|-------|
|------0-----0-----0-----0-|-----0-----0-------|-----0-|
|----0-----0-----0-----0---|---2-----2-----2---|---0---|
|--------------------------|-3-----------3-----|-2-----|
|-3------------3-----------|-------------------|-------|

          Am

|-------------0-----------|
|-------1-----------1-----|
|-------1-----------1-----|
|-----2-----2-----2-----2-|
|---2-----2-----2-----2---|
|-------------------------|

            D 9/6                        G

|--------------0-----------|--------------3-----------|
|--------3-----------3-----|--------0-----------0-----|
|------2-----2-----2-----2-|------0-----0-----0-----0-|
|----0-----0-----0-----0---|----0-----0-----0-----0---|
|--------------------------|--------------------------|
|-2------------2-----------|-3------------3-----------|

           Am

|-------------0------------|
|-------1-----------1------|
|-----2-----2-----2-----2--|
|---2-----2-----2-----2----|
|-0-----------0------------|
|--------------------------|

           D 9/6                         G

|--------------0-----------|--------------3-----------|
|--------3-----------3-----|--------0-----------0-----|
|------2-----2-----2-----2-|------0-----0-----0-----0-|
|----0-----0-----0-----0---|----0-----0-----0-----0---|
|--------------------------|--------------------------|
|-2------------2-----------|-3------------3-----------|

         C           Cmaj7

|-------------0-----|-------|
|-------1-----------|-------|
|-----0-----0-----0-|-----0-|
|---2-----2-----2---|---0---|
|-3-----------3-----|-2-----|
|-------------------|-------|

           Am                        D 9/6             G

|-------------0-----------|--------------0-----------|---|
|-------1-----------1-----|--------3-----------3-----|---|
|-----2-----2-----2-----2-|------2-----2-----2-----2-|---|
|---2-----2-----2-----2---|----0-----0-----0-----0---|---|
|-0-----------0-----------|--------------------------|---|
|-------------------------|-2------------2-----------|-3-|

Coro de la canción:

           C                   D 9/6

|-------------0-----|--------------0-----------|
|-------1-----------|--------3-----------3-----|
|-----0-----0-----0-|------2-----2-----2-----2-|
|---2-----2-----2---|----0-----0-----0-----0---|
|-3-----------3-----|--------------------------|
|-------------------|-2------------2-----------|

              G

|--------------3-----------|
|--------0-----------0-----|
|------0-----0-----0-----0-|
|----0-----0-----0-----0---|
|--------------------------|
|-3------------3-----------|

        C            Cmaj7             A5

|-------------0-----|-------|-------------0-----------|
|-------1-----------|-------|-------0-----------0-----|
|-----0-----0-----0-|-----0-|-----2-----2-----2-----2-|
|---2-----2-----2---|---0---|---2-----2-----2-----2---|
|-3-----------3-----|-2-----|-0-----------0-----------|
|-------------------|-------|-------------------------|

         D 9/6

|--------------0-----------|
|--------3-----------3-----|
|------2-----2-----2-----2-|
|----0-----0-----0-----0---|
|--------------------------|
|-2------------2-----------|

             G                         G7

|--------------3-----------|-1------------1-----------|
|--------0-----------0-----|-------0------------0-----|
|------0-----0-----0-----0-|-----0------0-----0-----0-|
|----0-----0-----0-----0---|---0------0-----0-----0---|
|--------------------------|--------------------------|
|-3------------3-----------|-3------------3-----------|

          C

|-------------0-----|
|-------1-----------|
|-----0-----0-----0-|
|---2-----2-----2---|
|-3-----------3-----|
|-------------------|

              D 9/6                     G

|--------------3-----------|--------------0-----------|
|--------0-----------0-----|--------3-----------3-----|
|------0-----0-----0-----0-|------2-----2-----2-----2-|
|----0-----0-----0-----0---|----0-----0-----0-----0---|
|--------------------------|--------------------------|
|-3------------3-----------|-2------------2-----------|

Se repite introducción:

                   Am                           D

|-oh1p0---------|--------------0---------|-------2-----|
|-------0-----0-|-------1------------1---|-----3---3---|
|---------0h2---|-----2-----2------2-----|---2-------2-|
|---------------|---2-----2------2-----2-|-0-----------|
|---------------|-0------------0---------|-------------|
|---------------|------------------------|-------------|

                   G

|-oh1p0---------|--------------------------------------|
|-------0-----0-|-------0-----------0-----------0------|
|---------0h2---|-----0-----0-----0-----0-----0-----0--|
|---------------|---0-----------0-----------0----------|
|---------------|---------2-----------2------------2---|
|---------------|-3-----------3-----------3------------|

                   Am                           D

|-oh1p0---------|--------------0---------|-------2-----|
|-------0-----0-|-------1------------1---|-----3---3---|
|---------0h2---|-----2-----2------2-----|---2-------2-|
|---------------|---2-----2------2-----2-|-0-----------|
|---------------|-0------------0---------|-------------|
|---------------|------------------------|-------------|

                        G       Gsus          G

|-oh1p0---------|-------------|---------|--------------|
|-------0-----0-|-------0-----|-2-----2-|------0-------|
|---------0h2---|-----0-----0-|-----0---|---0----------|
|---------------|---0---------|---0-----|-0------------|
|---------------|---------2---|---------|--------------|
|---------------|-3-----------|-3-------|------3-------|

Sigue:

               G                        Am

|--------------3-----------|-------------0------------|
|--------0-----------0-----|-------1-----------1------|
|------0-----0-----0-----0-|-----2-----2-----2-----2--|
|----0-----0-----0-----0---|---2-----2-----2-----2----|
|--------------------------|-0-----------0------------|
|-3------------3-----------|--------------------------|

           D 9/6                         G

|--------------0-----------|--------------3-----------|
|--------3-----------3-----|--------0-----------0-----|
|------2-----2-----2-----2-|------0-----0-----0-----0-|
|----0-----0-----0-----0---|----0-----0-----0-----0---|
|--------------------------|--------------------------|
|-2------------2-----------|-3------------3-----------|

         C           Cmaj7
|-------------0-----|-------|
|-------1-----------|-------|
|-----0-----0-----0-|-----0-|
|---2-----2-----2---|---0---|
|-3-----------3-----|-2-----|
|-------------------|-------|

           Am                        D 9/6             G

|-------------0-----------|--------------0-----------|---|
|-------1-----------1-----|--------3-----------3-----|---|
|-----2-----2-----2-----2-|------2-----2-----2-----2-|---|
|---2-----2-----2-----2---|----0-----0-----0-----0---|---|
|-0-----------0-----------|--------------------------|---|
|-------------------------|-2------------2-----------|-3-|

Se repite el coro:


           C                   D 9/6

|-------------0-----|--------------0-----------|
|-------1-----------|--------3-----------3-----|
|-----0-----0-----0-|------2-----2-----2-----2-|
|---2-----2-----2---|----0-----0-----0-----0---|
|-3-----------3-----|--------------------------|
|-------------------|-2------------2-----------|

        G
|--------------3-----------|
|--------0-----------0-----|
|------0-----0-----0-----0-|
|----0-----0-----0-----0---|
|--------------------------|
|-3------------3-----------|

         C            Cmaj7             A5

|-------------0-----|-------|-------------0-----------|
|-------1-----------|-------|-------0-----------0-----|
|-----0-----0-----0-|-----0-|-----2-----2-----2-----2-|
|---2-----2-----2---|---0---|---2-----2-----2-----2---|
|-3-----------3-----|-2-----|-0-----------0-----------|
|-------------------|-------|-------------------------|

          D 9/6

|--------------0-----------|
|--------3-----------3-----|
|------2-----2-----2-----2-|
|----0-----0-----0-----0---|
|--------------------------|
|-2------------2-----------|

             G                         G7

|--------------3-----------|-1------------1-----------|
|--------0-----------0-----|-------0------------0-----|
|------0-----0-----0-----0-|-----0------0-----0-----0-|
|----0-----0-----0-----0---|---0------0-----0-----0---|
|--------------------------|--------------------------|
|-3------------3-----------|-3------------3-----------|

          C

|-------------0-----|
|-------1-----------|
|-----0-----0-----0-|
|---2-----2-----2---|
|-3-----------3-----|
|-------------------|

              D 9/6                     G

|--------------3-----------|--------------0-----------|
|--------0-----------0-----|--------3-----------3-----|
|------0-----0-----0-----0-|------2-----2-----2-----2-|
|----0-----0-----0-----0---|----0-----0-----0-----0---|
|--------------------------|--------------------------|
|-3------------3-----------|-2------------2-----------|


         C            Cmaj7             Am

|-------------0-----|-------|-------------0-----------|
|-------1-----------|-------|-------1-----------1-----|
|-----0-----0-----0-|-----0-|-----2-----2-----2-----2-|
|---2-----2-----2---|---0---|---2-----2-----2-----2---|
|-3-----------3-----|-2-----|-0-----------0-----------|
|-------------------|-------|-------------------------|

          D 9/6

|--------------0-----------|
|--------3-----------3-----|
|------2-----2-----2-----2-|
|----0-----0-----0-----0---|
|--------------------------|
|-2------------2-----------|

           G

|--------------0-----------|
|--------3-----------3-----|
|------2-----2-----2-----2-|
|----0-----0-----0-----0---|
|--------------------------|
|-2------------2-----------|

Final de la canción:

         Cmaj              Em7               Am7

|--------------3-----|-------------|-------------3-----------|
|-------1------------|-------3-----|-------1-----------1-----|
|-----0-----0------0-|-----0-----0-|-----0-----0-----0-----0-|
|---2-----2------2---|---0-----0---|---2-----2-----2-----2---|
|-3------------3-----|-2-----------|-0-----------0-----------|
|--------------------|-------------|-------------------------|

                                     Cmaj

|------------------------|--------------3-----------|
|-0h1p0------------------|-------1------------1-----|
|-------0-----0----------|-----0-----0------0-----0-|
|---------0h2-------0----|---2-----2------2-----2---|
|---------------0h2---2--|-3------------3-----------|
|------------------------|--------------------------|

      Em7             Em 7-5                      Am           G

|-------------|--------------3----------|--------------3-----|-3-|
|-------3-----|-------3------------3----|-------1------------|-0-|
|-----0----0--|-----0-----0------0----0-|-----0-----0------0-|-0-|
|---0----0----|---0-----0------0----0---|---2-----2------2---|-0-|
|-2-----------|-1------------1----------|-0------------0-----|-2-|
|-------------|-------------------------|--------------------|-3-|

___________________________________________________________________

Esa es la tablatura completa de la canción, las notas, a pesar de sus
nombres, son fáciles, la más o menos complicada es D9/6

Las notas están en nomenclatura americana, el significado es:

A = La
B = Si
C = Do
D = Re
E = Mi
F = Fa
G = Sol

Los otros símbolos son:

h = hammer on
p = pull off
Maj = mayor
7 = con séptima
5 = con quinta
m = menor
Sus = suspendida
/ = cambio rápido

Las notas que ocupa esta Tab son:

Am
G
C
Cmaj7
A5
D 9/6
Em7
G7
Gsus
Em7-5

Son notas relativamente básicas, y no complicadas de cambiar y tocar
---------
fernando.fetis@hotmail.com<p>Fuente: tusacordes.com</p>