a b c d e f g h i j k l m n o p q r s t u v w x y z 0-9

Every Breath You Take

The Police

			
EVERYBREATH YOU TAKE ? THE POLICE
Afinación ? bemol

GUITARRA 1: ARPEJEO. Realiza el arpegio indicado toda la canción 
GUITARRA 2: ACORDES. Esta realiza los acordes indicados toda la canción
GUITARRA 3: PUNTEOS. Esta participa solo en algunas partes de la canción

INTRO

   A                      F#m
E|-----------------|----|-----------------|----|
B|-----0---2-0---0-|----|-----------------|----|
G|-----------------|-X2-|-----1---2-1---1-|-X2-|
D|---2---2-----2---|----|-----------------|----|
A|-0---------------|----|---4---4-----4---|----|
E|-----------------|----|-2---------------|----|
   D                      E
E|---------0-------|----|---------2-------|----|
B|-----3-----3---3-|----|-----5-----5---5-|----|
G|---2---2-----2---|-X2-|---4---4-----4---|-X2-|
D|-0---------------|----|-2---------------|----|
A|-----------------|----|-----------------|----|
E|-----------------|----|-----------------|----|

ESTROFA 1
             A    
EVERY BREATH YOU TAKE
                 F#m
EVERY MOVE YOU MAKE
               D
EVERY BOND YOU BREAK
               E
EVERY STEP YOU TAKE
                   F#m
I´LL BE WATCHING YOU.

               A
EVERY SINGLE DAY
                 F#m
EVERY WORD YOU SAY
                 D
EVERY GAME YOU PLAY
                  E
EVERY NIGHT YOU STAY
                  A
I´LL BE WATCHING YOU.


ESTRIBILLO

       D       C
OH CAN´T YOU SEE
              A
YOU BELONG TO ME?
                       B                        E
HOW MY POOR HEART ACHES WITH EVERY STEP YOU TAKE.


El punteo va siguiendo el ritmo de los acordes

GUITARRA 3
 D       C                 A              B		E  
E|-10-10-10-10-|-------------|-------------|-12-12-12-12-|
B|-------------|-10-10-10-10-|-12-12-12-12-|-------------|
G|--7--7--7--7-|-------------|-------------|--9--9--9--9-|
D|-------------|--7--7--7--7-|--9--9--9--9-|-------------|
A|-------------|-------------|-------------|-------------|
E|-------------|-------------|-------------|-------------|

GUITARRA 2
   D                  C			   A
E|-----------------|-----------------|------------------|----|
B|-----5---7-5---5-|-----3---5-3---3-|------0---2-0---0-|----|
G|-----------------|-----------------|------------------|-X2-|
D|---7---7-----7---|---5---5----5----|----2---2-----2---|----|
A|-5---------------|-3---------------|--0---------------|----|
E|-----------------|-----------------|------------------|----|

   B                       E
E|-----------------|----|-----------------|----|
B|-----2---4-2---2-|----|-----9---7-------|----|
G|-----------------|-X2-|-----------------|-X2-|
D|---4---4-----4---|----|---9---9---9---9-|----|
A|-2---------------|----|-7-----------7---|----|
E|-----------------|----|-----------------|----|



ESTROFA 2


                 A
EVERY MOVE YOU MAKE
               F#m
EVERY VOW YOU BREAK
                 D
EVERY SMILE YOU FAKE
                    E
EVERY CLAIM YOU STAKE
                 F#m
I´LL BE WATCHING YOU.


CORO

       F                                G
SINCE YOU´VE GONE I´VE BEEN LOST WITHOUT A TRACE.
                                	F
I DREAM AT NIGHT, I CAN ONLY SEE YOUR FACE.
                              		G
I LOOK AROUND BUT IT´S YOU I CAN´T REPLACE.
    				        F
I FEEL SO COLD AND I LONG FOR YOUR EMBRACE.
                               A ? F#m ? D ? E ? F#m ? A -- F#m ? D ? E ? A                                              
I KEEP CRYING BABY, BABY PLEASE...





GUITARRA 3
	F        G	       F	   INTRO X 2	
E|---|-8-7-5-3--10-8-7---|----|-8-7-5-|-9-|-----|
B|-6-|-----------------6-|----|-------|10-|-----|
G|---|-5-4-2-0---7-5-4---|-X2-|-5-4-2-|-9-|-X32-|
D|-3-|-----------------3-|----|-------|---|-----|
A|---|-------------------|----|-------|---|-----|
E|---|-------------------|----|-------|---|-----|

GUITARRA 2

   F		        	G                       
E|---------------------|-----------------------|----|
B|------8----10-8----8-|------10----12-10---10-|----|
G|---------------------|-----------------------|-X2-|
D|---10---10-----10----|----12---12------12----|----|
A|-8-------------------|-10--------------------|----|
E|---------------------|-----------------------|----|

GUITARRA 4
ESTO LO AHCE DESPUES DEL PRIMER CIRCULO ARMONICO

                          
E|-----------|-----|
B|-----------|-----|
G|--9-7-6----|-X10-|
D|--------7--|-----|
A|-----------|-----|
E|-----------|-----|


INTRO X2
El Segundo intro va acompañado de ?hum uhhh? 


ESTRIBILLO

      D       C
OH CAN´T YOU SEE
              A
YOU BELONG TO ME?
                  B                        E
HOW MY POOR HEART ACHES WITH EVERY STEP YOU TAKE.

   C                       
E|-5-5-5-5-5-5--|----|
B|-5-5-5-5-5-5--|----|
G|-2-2-2-2-2-2--|-XI-|
D|--------------|----|
A|--------------|----|
E|--------------|----|


ESTROFA 3

 	  A		
EVERY MOVE YOU MAKE
                 F#m
EVERY VOW YOU BREAK
                   D
EVERY SMILE YOU FAKE
                    E 
EVERY CLAIM YOU STAKE
                   F#m
I´LL BE WATCHING YOU.



                  D
EVERY MOVE YOU MAKE
                  E
EVERY STEP YOU TAKE
                F#m
I´LL BE WATCHING YOU.


F#m X3


CAMBIO. A = 1t, F#m = 1/2t, D = 1/2t.

  A
EVERY BREATH YOU TAKE, EVERY MOVE YOU MAKE
      F#m
EVERY BOND YOU BREAK
     D
EVERY STEP YOU TAKE

 A 
EVERY SINGLE DAY, EVERY WORD YOU SAY
        F#m
EVERY GAME YOU PLAY
         D
EVERY NIGHT YOU STAY

  A 
EVERY MOVE YOU MAKE, EVERY VOW YOU BREAK
F#m
EVERY SMILE YOU FAKE
D
EVERY CLAIM YOU STAKE



         
Gracias espero les guste. toda la guitarra 3 fue a oido a si qe no duden en comunicar cualquier error.

Fuente: Tusacordes