a b c d e f g h i j k l m n o p q r s t u v w x y z 0-9

Roadhouse Blues

The Doors

			
E|---------------------------------------------------------------------|
B|---------------------------------------------------------------------|
G|---------------------------------------------------------------------|
D|------------------------------------------0h1h2----------------------|
A|------------------0h1h2----------------------------------------------|
E|--0--0-0--0-0--0---------0--0-0--0-0--0------------------------------|

E|---------------------------------------------------------------------|
B|---------------------------------------------------------------------|
G|-----------------------------------------------0---------------------|
D|-----------------------------------------0h1h2----2p0-2-0---0--------| repeat
A|------------------0h1h2-----------------------------------2---2------|
E|--0--0-0--0-0--0---------0--0-0--0-0--0------------------------------|
 
              chorus
E|---------------------------|   
B|---------------------------|    
G|---------------------------|     
D|------------2-2--4-2-------|  repeat 
A|--0-0--3-4-----------------|     
E|---------------------------|     

E|---------------------------|
B|---------------------------|
G|--4-4-4-4-4-4---5-5-5--4---|
D|--4-4-4-4-4-4---5-5-5--4---|  go back to main riff
A|--2-2-2-2-2-2---3-3-3--2---|
E|---------------------------|

then play the pentatonic scale into a improvised solo

      pentatonic scale
E|--------------------------------------12-15----------|
B|-------------------------------12-15-----------------|
G|------------------------12-14------------------------|   
D|-----------------12-14-------------------------------|
A|----------12-14--------------------------------------|
E|--12-15----------------------------------------------|

Fuente: tusacordes.com