a b c d e f g h i j k l m n o p q r s t u v w x y z 0-9

Yesterday

The Beatles

			
Yesterday the beatles
 Intro
    d
E|---------------------0--1---0---------------------------------|
B|--------------0--2-3----------3--3--3--3-1--------------------|
G|---0-------2-------------------------------3--2-0-3-2-2-0-----|
D|-----3-3--------------------------------------------------3---|
A|--------------------------------------------------------------|
E|--------------------------------------------------------------|

E|----------------------------------------------0---1-0---------|
B|---------------------------------------0-2--3---------3---3---|
G|---2--0--------2--2---0------------2--------------------------|
D|--------0--3--------------3--3--------------------------------|
A|--------------------------------------------------------------|
E|--------------------------------------------------------------|

E|-----------------------------------------------------0--1-0---|
B|--3-3--1-------------------------------------------3----------|
G|---------3-2-0-3--2---2-0----2--0-------2--2-2--2-----------3-|
D|---------------------------3------0--3------------------------|
A|--------------------------------------------------------------|
E|--------------------------------------------------------------|


E|--0--1---0--------0-------------------------------------------|
B|------------------------3------1-----3------------------------|
G|--------------3-----------------------------------------------|
D|--------------------------------------------------------------|
A|--------------------------------------------------------------|
E|--------------------------------------------------------------|

Fuente: Tusacordes