a b c d e f g h i j k l m n o p q r s t u v w x y z 0-9

Yesterday

The Beatles

			
-----------------------------------0--2--3--2--00-----------
----------------0--------0--2--4---------------00-----------
-2_0----------0-------2-----------------------------------0-
------------0---------------------------------------2-0-----
-------------------------------2-------------------------3--
-3----3--3---------2------------------------0---------------


-0-0--------------------------------------------------------*
------3--1--0---1-----00-----------0------------0-0---------*
--------------2-------00-----2--0-----2-----0---0-0---------*
------0------------0---------------------2------0-0---------*
--------------------------------------4-----3---------------*
----------------3---------3--2--3---------------0-0---------*


----------------------0----2-----3----2--0--2----0-----0----
-0---------0----------------------------------------3-----0-
------2---------2-------0-----0-----0----------2------------
----2---2-----1---1---2----0----------------0---------------
-----------2---------------------3--------------------------
-2----------------------------------------------------------


----------------------------------------0----2--3---2--0----
--------------------0---------0-----------------------------
------0----0---0---------2---------2-------0------0---------
----0---0----0---0-----2---2-----1---1--2----0--------------
------------------------------2-----------------3-----------
-3------------------2---------------------------------------


---0---2--3-------------------------------------------------
-----3----------3---1---0-----------------------------------
-2--------------0---0---0-----------------------------------
-------------0----0---0---0---------------------------------
------------------------------------------------------------
----------3-------------------------------------------------


ps ya solo acabas repitiendo el inicio hasta los asteriscos...
uuuuyyyyyy el axel y la tepiteña xD JAJAJA 
k loco la chaca valedor...
comenten xfa

Fuente: tusacordes.com