a b c d e f g h i j k l m n o p q r s t u v w x y z 0-9

Yesterday

The Beatles

			
e---------------------------------------------------------------
B-------------3-5-6-5-3-3--3-3-1--------------------------------
G-0----2-4-6---------------------3-2-0-3-2-2--0---2-0-----2-2---
D--3-3------------------------------------------3-----0-3-------
A---------------------------------------------------------------
E---------------------------------------------------------------

e---------------------------------------------------------------
B-------------3-5-6-5-3-3--3-3-1--------------------------------
G-0----2-4-6---------------------3-2-0-3-2-2--0---2-0-----2-2---
D--3-3------------------------------------------3-----0-3-------
A---------------------------------------------------------------
E---------------------------------------------------------------

e---------------------------------------------------------------
B------3-5-6-5-3-5-3-1-3----------------------------------------
G-2-2--------------------2--------------------------------------
D---------------------------------------------------------------
A---------------------------------------------------------------
E---------------------------------------------------------------

e-----------------------0-1-------------------------------------
B------3-5-6-5-3-5-3-1------1-----------------------------------
G-2-2-------------------------3-2-------------------------------
D---------------------------------------------------------------
A---------------------------------------------------------------
E---------------------------------------------------------------

Repite la primera parte.

Fuente: tusacordes.com