a b c d e f g h i j k l m n o p q r s t u v w x y z 0-9

Yesterday

The Beatles

			
Bue me di cuenta que en la otra música que puse me equiboque pero esta es la que esta correcta espero que les guste...

Escrito por Nicolás Lezcano Blasco...

e-------0-2-4-5-7-8-7-5-5-5-5-3-1-0---1-0-0-----0---------------
B-3-1-1-----------------------------3-------3-1---3---1-C-C-----
G---------------------------------------------------------------
D---------------------------------------------------2-----------
A---------------------------------------------------------------
E---------------------------------------------------------------
2veces

e-0-0-5-7-8-7-5-7-5-3-5-0-0-0-5-7-8-7-5-7-5-3-7-8-3-1-0---------
B---------------------------------------------------------------
G---------------------------------------------------------------
D---------------------------------------------------------------
A---------------------------------------------------------------
E---------------------------------------------------------------

e-------0-2-4-5-7-8-7-5-5-5-5-3-1-0---1-0-0-----0---------------
B-3-1-1-----------------------------3-------3-1---3---1-C-C-----
G---------------------------------------------------------------
D---------------------------------------------------2-----------
A---------------------------------------------------------------
E---------------------------------------------------------------
2veces

e-0-0-5-7-8-7-5-7-5-3-5-0-0-0-5-7-8-7-5-7-5-3-7-8-C-------------
B---------------------------------------------------------------
G---------------------------------------------------------------
D---------------------------------------------------------------
A---------------------------------------------------------------
E---------------------------------------------------------------

Fuente: tusacordes.com