a b c d e f g h i j k l m n o p q r s t u v w x y z 0-9

Yesterday

The Beatles

			
bue yo ase 10 meses que estoy en la guitarra y me encanta esto es lo que pude sacar espero que les guste:

E---------------------------------------------------------------
A---------------------------------------------------------------
D---------------------------------------------------------------
G---------------------------------------------------2-----------
B-3-1-1-----------------------------3-------3-1---3---1-C-C-----
e-------0-2-4-5-7-8-7-5-5-5-5-3-1-0---1-0-0-----0---------------

E---------------------------------------------------------------
A---------------------------------------------------------------
D---------------------------------------------------------------
G---------------------------------------------------2-----------
B-3-1-1-----------------------------3-------3-1---3---1-C-C-----
e-------0-2-4-5-7-8-7-5-5-5-5-3-1-0---1-0-0-----0---------------


E---------------------------------------------------------------
A---------------------------------------------------------------
D---------------------------------------------------------------
G---------------------------------------------------------------
B---------------------------------------------------------------
e-0-0-5-7-8-7-5-7-5-3-5-0-0-0-5-7-8-7-5-7-5-3-7-8-3-1-0---------


E---------------------------------------------------------------
A---------------------------------------------------------------
D---------------------------------------------------------------
G---------------------------------------------------2-----------
B-3-1-1-----------------------------3-------3-1---3---1-C-C-----
e-------0-2-4-5-7-8-7-5-5-5-5-3-1-0---1-0-0-----0---------------

E---------------------------------------------------------------
A---------------------------------------------------------------
D---------------------------------------------------------------
G---------------------------------------------------2-----------
B-3-1-1-----------------------------3-------3-1---3---1-C-C-----
e-------0-2-4-5-7-8-7-5-5-5-5-3-1-0---1-0-0-----0---------------


E---------------------------------------------------------------
A---------------------------------------------------------------
D---------------------------------------------------------------
G---------------------------------------------------------------
B---------------------------------------------------------------
e-0-0-5-7-8-7-5-7-5-3-5-0-0-0-5-7-8-7-5-7-5-3-7-8-C-------------


obs:en la parte sonde dice "C"...tienen que acer Do porque asi es la canción...y en el untimo "C" es el ultimo rajido

Fuente: tusacordes.com