a b c d e f g h i j k l m n o p q r s t u v w x y z 0-9

Yesterday

The Beatles

			
muy buena cancion 

aqui les va los versos

|---------------------------------------|
|--------------0-1-0--------------------|
|----------1-2-------2-2----------------|
|-0-----2-4-----------------------------|
|---3-3---------------------------------|
|---------------------------------------|


|----------------------------------------------|
|----------------------------------------------|
|-2-0------------------------------------------|
|-----3-2-0-3-22-0---2-0-----2-2---------------|
|------------------3-----0-3-------------------|
|----------------------------------------------|


|--------------------------------------------|
|---------------0-1-0------------------------|
|-----------1-2-------2-2-2-0----------------|
|-0-----2-4-------------------3-2-0-3-2-2----|
|---3-3--------------------------------------|
|--------------------------------------------|


|-----------------------------------------|
|---------0-1-0---0-----------------------|
|-------2-------2---2-0-2-----------------|
|-2--2--------------------2---2--2--------|
|-----------------------------------------|
|-----------------------------------------|


|-----------------------------------------|
|---0-1-0---0-----0-1---------------------|
|-2-------2---2-0-----0-------------------|
|-----------------------3-2-0-------------|
|-----------------------------33----------|
|-----------------------------------------|


|-------------------------------------------|
|---------0-1-0-----------------------------|
|-----1-2-------22-2-0----------------------|
|-2-4------------------3-2-0-3-22-----------|
|-------------------------------------------|
|-------------------------------------------|

|--------------------------------------------------------|
|--------------------0-1-0---0---------------------------|
|------------------2-------2---2-0-2---------------------|
|-0---2-0-----2-2--------------------2----2--2-----------|
|---3-----0-3--------------------------------------------|
|--------------------------------------------------------|



|-----------------------------------------|
|---0-1-0---0-----0-1---------------------|
|-2-------2---2-0-------------------------|
|-----------------------------------------|
|-----------------------------------------|
|-----------------------------------------|

les recomiendo escuchar la melodia antes

Fuente: tusacordes.com