a b c d e f g h i j k l m n o p q r s t u v w x y z 0-9

Yellow Submarine

The Beatles

			
Aca les dejo la tablatura de esta excelente cancion, a mi parecer la tablatura no es mala...


1|-------6---8-------------------------------------------------|
2|---10---------10---8---10---6---10---10---8---6----10--10--8-|   
3|----------------------------------------------- 7------------| 
4|-------------------------------------------------------------|
5|-------------------------------------------------------------|
6|-------------------------------------------------------------|

Esto se revite la veces necesarias... y despues va el coro...

1|---8--8--8--8--10----------------------------------------------|
2|------------------8--8--8--8--8---8--8--8--8--8--6--6--6--6--6-|
3|---------------------------------------------------------------|
4|---------------------------------------------------------------|
5|---------------------------------------------------------------|
6|---------------------------------------------------------------|



Pista para tocar con la guitarra: http://www.guitarbackingtrack.com/play/beatles,_the/yellow_submarine.htm

Fuente: Tusacordes