a b c d e f g h i j k l m n o p q r s t u v w x y z 0-9

Yellow Submarine

The Beatles

			
Canción Yellow Submarine de THE BEATLES escrita por Ringo Starr 

           Estrofa 
  1|--------------------------------------------------------
   |-0-1-3---3---0----0------------0-0--------------0-0
   |-----------------2------2-------------2-0---------------2
   |-----------------------------------------------2-2--------
   |-----------------------------------------------------------
 6 |-----------------------------------------------------------

        Estribillo
|-----------0-------------------------------------
|-3-3-3-3----------------------------------------
|--------------2-2-2-2-2--2-2-2-2-2-0-0-0-0-0
|---------------------------------------------------
|--------------------------------------------------
|--------------------------------------------------

Fuente: Tusacordes