a b c d e f g h i j k l m n o p q r s t u v w x y z 0-9

Yellow Submarine

The Beatles

			
E--7-8-10---7---7------7-7----------7-7--
G------------10---8-------10-8---------10
B-----------------------------9---9------
D----------------------------------------
A----------------------------------------
E---------------------------------------- x2

E--10-10-10-10-13----------------------------------------------
G-----------------10-10-10-10-10---10-10-10-10-10--------------
B-------------------------------------------------12-12-12-12-12
D---------------------------------------------------------------
A---------------------------------------------------------------
E-------------------------------------------------------------x2

E--7-8-10---7---7------7-7----------7-7--
G------------10---8-------10-8---------10
B-----------------------------9----------
D----------------------------------------
A----------------------------------------
E---------------------------------------- x2

E--10-10-10-10-13----------------------------------------------
G-----------------10-10-10-10-10---10-10-10-10-10--------------
B-------------------------------------------------12-12-12-12-12
D---------------------------------------------------------------
A---------------------------------------------------------------
E-------------------------------------------------------------x2

Fuente: Tusacordes