a b c d e f g h i j k l m n o p q r s t u v w x y z 0-9

Yellow Submarine

The Beatles

			
Esta es la verción que si esta bien...

Escrito por Nicolás Lezcano Blasco..

e-0-1-3-0---0---0-0---------0-0---------------------------------
B---------2---1-----3-1-0-------3-------------------------------
G-------------------------2-------------------------------------
D---------------------------------------------------------------
A---------------------------------------------------------------
E---------------------------------------------------------------
3veces

e-3-3-3-3-5-----------------------------------------------------
B-----------3-3-3-3-3-3-3-3-3-3-1-1-1-1-1-----------------------
G---------------------------------------------------------------
D---------------------------------------------------------------
A---------------------------------------------------------------
E---------------------------------------------------------------
2veces

e-0-1-3-3-3-0---0-------0-0-------0-0---------------------------
B-------------3---3-3-3-----3-1-------3-3-3---------------------
G-------------------------------2-------------------------------
D---------------------------------------------------------------
A---------------------------------------------------------------
E---------------------------------------------------------------
2veces

e-3-3-3-3-5-----------------------------------------------------
B-----------3-3-3-3-3-3-3-3-3-3-1-1-1-1-1-----------------------
G---------------------------------------------------------------
D---------------------------------------------------------------
A---------------------------------------------------------------
E-------------------------------------------------------------C-
3veces

Fuente: tusacordes.com