a b c d e f g h i j k l m n o p q r s t u v w x y z 0-9

Yellow Submarine

The Beatles

			
aca les va otra canción de los beatles...
espero que les guste escriban que tal les parecio...
aqui les va:

E---------------------------------------------------------------
A---------------------------------------------------------------
D---------------------------------------------------------------
G-------------------------2-------------------------------------
B---------2---1-----3-1-0-------3-------------------------------
e-0-1-3-0---0---0-0---------0-0---------------------------------

E---------------------------------------------------------------
A---------------------------------------------------------------
D---------------------------------------------------------------
G-------------------------2-------------------------------------
B---------2---1-----3-1-0-------3-------------------------------
e-0-1-3-0---0---0-0---------0-0---------------------------------

E---------------------------------------------------------------
A---------------------------------------------------------------
D---------------------------------------------------------------
G-------------------------2-------------------------------------
B---------2---1-----3-1-0-------3-------------------------------
e-0-1-3-0---0---0-0---------0-0---------------------------------

E---------------------------------------------------------------
A---------------------------------------------------------------
D---------------------------------------------------------------
G---------------------------------------------------------------
B-----------3-3-3-3-3-3-3-3-3-3-1-1-1-1-1-----------------------
e-3-3-3-3-5-----------------------------------------------------

E---------------------------------------------------------------
A---------------------------------------------------------------
D---------------------------------------------------------------
G---------------------------------------------------------------
B-----------3-3-3-3-3-3-3-3-3-3-1-1-1-1-1-----------------------
e-3-3-3-3-5-----------------------------------------------------

E---------------------------------------------------------------
A---------------------------------------------------------------
D---------------------------------------------------------------
G-------------------------------2-------------------------------
B-------------3---3-3-3-----3-1-------3-3-3---------------------
e-0-1-3-3-3-0---0-------0-0-------0-0---------------------------

E---------------------------------------------------------------
A---------------------------------------------------------------
D---------------------------------------------------------------
G-------------------------------2-------------------------------
B-------------3---3-3-3-----3-1-------3-3-3---------------------
e-0-1-3-3-3-0---0-------0-0-------0-0---------------------------

E---------------------------------------------------------------
A---------------------------------------------------------------
D---------------------------------------------------------------
G---------------------------------------------------------------
B-----------3-3-3-3-3-3-3-3-3-3-1-1-1-1-1-----------------------
e-3-3-3-3-5-----------------------------------------------------

E---------------------------------------------------------------
A---------------------------------------------------------------
D---------------------------------------------------------------
G---------------------------------------------------------------
B-----------3-3-3-3-3-3-3-3-3-3-1-1-1-1-1-----------------------
e-3-3-3-3-5-----------------------------------------------------

E---------------------------------------------------------------
A---------------------------------------------------------------
D---------------------------------------------------------------
G---------------------------------------------------------------
B-----------3-3-3-3-3-3-3-3-3-3-1-1-1-1-1-C---------------------
e-3-3-3-3-5-----------------------------------------------------

obs:en la parte que dice "C" hay que acer un ultimo rajido para terminar la música...

Fuente: tusacordes.com