a b c d e f g h i j k l m n o p q r s t u v w x y z 0-9

Words Of Love

The Beatles

			
Q    Q    E   E  E  E     E  E  E  E  E  E  E  E   
E||--5----5----0---L--0-----|-----2--------0--------0--|
B||--5----5----2S--5--5--2--|--------3--------2--0-----|
G||-------------------------|--2--------2--------------|
D||-------------------------|--------------------------|
A||-------------------------|--------------------------|
E||-------------------------|--------------------------|


  Q    Q    E   E  E  E     E  E  E  E  E  E  E  E     Q    Q    E   E  E  E   
--5----5----0---L--0-----|-----2--------0--------0--|--5----5----0---L--0-----|
--5----5----2S--5--5--2--|--------3--------2--0-----|--5----5----2S--5--5--2--|
-------------------------|--2--------2--------------|-------------------------|
-------------------------|--------------------------|-------------------------|
-------------------------|--------------------------|-------------------------|
-------------------------|--------------------------|-------------------------|


  E  E  E  E  E  E  E  E     Q    E.  S E  Q    E     E  E  E  E  E  E  E  E   
-----2--------0--------0--|--5----5---5-0--0-------|-----2--------0-----------|
--------3--------2--0-----|--5----5---5-5--5----0--|--------3--------2--0-----|
--2--------2--------------|------------------------|--2--------2-----------1--|
--------------------------|------------------------|--------------------------|
--------------------------|------------------------|--------------------------|
--------------------------|------------------------|--------------------------|


  H        Q    E  E     E  E  E  E  E  E  E  E     Q    Q    Q    E  E   
--0--------0----0--0--|-----2--------0-----------|--0----0----0----0--0--|
--2--------2----2--2--|--------3--------2--0-----|--2----2----2----2--2--|
--2--------2----2--2--|--2--------2-----------1--|--2----2----2----2--2--|
--2--------2----2--2--|--------------------------|--2----2----2----2--2--|
--0--------0----0--0--|--------------------------|--0----0----0----0--0--|
--0--------0----0--0--|--------------------------|--0----0----0----0--0--|


  E  E  E  E  E  E  E  E     Q    Q    Q    E  E     E  E  E  E  E  E  E  E   
-----2--------0-----------|--0----0----0----0--0--|-----2--------0-----------|
--------3--------2--0-----|--2----2----2----2--2--|--------3--------2--0-----|
--2--------2-----------1--|--2----2----2----2--2--|--2--------2-----------1--|
--------------------------|--2----2----2----2--2--|--------------------------|
--------------------------|--0----0----0----0--0--|--------------------------|
--------------------------|--0----0----0----0--0--|--------------------------|


  Q    Q    Q    E  E     E  E  E  E  E  E  E  E     H        Q    E  E   
--0----0----0----0--0--|-----2--------0-----------|--0--------0----0--0--|
--2----2----2----2--2--|--------3--------2--0-----|--2--------2----2--2--|
--2----2----2----2--2--|--2--------2-----------1--|--2--------2----2--2--|
--2----2----2----2--2--|--------------------------|--2--------2----2--2--|
--0----0----0----0--0--|--------------------------|--0--------0----0--0--|
--0----0----0----0--0--|--------------------------|--0--------0----0--0--|


  E  E  E  E  E  E  E  E     Q    Q    Q    E  E     E  E  E  E  E  E  E  E   
-----2--------0-----------|--0----0----0----0--0--|-----2--------0-----------|
--------3--------2--0-----|--2----2----2----2--2--|--------3--------2--0-----|
--2--------2-----------1--|--2----2----2----2--2--|--2--------2-----------1--|
--------------------------|--2----2----2----2--2--|--------------------------|
--------------------------|--0----0----0----0--0--|--------------------------|
--------------------------|--0----0----0----0--0--|--------------------------|


  Q    Q    Q    E  E     E  E  E  E  E  E  E  E     Q    Q    Q    E  E   
--0----0----0----0--0--|-----2--------0-----------|--0----0----0----0--0--|
--2----2----2----2--2--|--------3--------2--0-----|--2----2----2----2--2--|
--2----2----2----2--2--|--2--------2-----------1--|--2----2----2----2--2--|
--2----2----2----2--2--|--------------------------|--2----2----2----2--2--|
--0----0----0----0--0--|--------------------------|--0----0----0----0--0--|
--0----0----0----0--0--|--------------------------|--0----0----0----0--0--|


  E  E  E  E  Q    Q        Q    Q    Q    Q       E   Q    E  E   E  E    E   
-----2--------4----7----|---9----5----0----5----|--2S--5----5--4S--7--7S---9--|
--------3-----5----9----|--10----5----2----5----|--3S--7----7--5S--9--9S--10--|
--2--------2------------|-----------------------|-----------------------------|
------------------------|-----------------------|-----------------------------|
------------------------|-----------------------|-----------------------------|
------------------------|-----------------------|-----------------------------|


   Q    Q    Q    Q       E   Q    E  E   E  E    E      Q    Q    Q    Q     
---9----5----0----5----|--2S--5----5--4S--7--7S---9--|---9----5----0----5----|
--10----5----2----5----|--3S--7----7--5S--9--9S--10--|--10----5----2----5----|
-----------------------|-----------------------------|-----------------------|
-----------------------|-----------------------------|-----------------------|
-----------------------|-----------------------------|-----------------------|
-----------------------|-----------------------------|-----------------------|


  E   Q    E  E   E  Q       Q    E.  S E  Q    E     E  E  E  E  E  E  E  E   
--2S--5----5--4S--7--7----|--5----5---5-0--0-------|-----2--------0-----------|
--3S--7----7--5S--9--9----|--5----5---5-5--5----0--|--------3--------2--0-----|
--------------------------|------------------------|--2--------2-----------1--|
--------------------------|------------------------|--------------------------|
--------------------------|------------------------|--------------------------|
--------------------------|------------------------|--------------------------|


  Q    Q    Q    E.  S    E  Q    E  E  E  E  E     Q    Q    Q    E.  S  
-----------------------|-----2----2--0-----------|-----------------------|
--2----2----2----2---2-|-----3----3-----2--0--0--|--2----2----2----2---2-|
--2----2----2----2---2-|--2----------------------|--2----2----2----2---2-|
--2----2----2----2---2-|-------------------------|--2----2----2----2---2-|
-----------------------|-------------------------|-----------------------|
-----------------------|-------------------------|-----------------------|


  E  Q    E  E  E  E  E     Q    Q    Q    E.  S    E  Q    E  E  E  E  E   
-----2----2--0-----------|-----------------------|-----2----2--0-----------|
-----3----3-----2--0--0--|--2----2----2----2---2-|-----3----3-----2--0--0--|
--2----------------------|--2----2----2----2---2-|--2----------------------|
-------------------------|--2----2----2----2---2-|-------------------------|
-------------------------|-----------------------|-------------------------|
-------------------------|-----------------------|-------------------------|


  Q    Q    E  E  E.  S    E  E  E  E  E  E  E  E     H        Q    E  E   
--0----0----0--0--0---0-|-----2--------0-----------|--0--------0----0--0--|
--5----5----2--5--5-----|--------3--------2--0-----|--2--------2----2--2--|
------------------------|--2--------2-----------1--|--2--------2----2--2--|
------------------------|--------------------------|--2--------2----2--2--|
------------------------|--------------------------|--0--------0----0--0--|
------------------------|--------------------------|--0--------0----0--0--|


  E  E  E  E  E  E  E  E     Q    Q    Q    E  E     E  E  E  E  E  E  E  E   
-----2--------0-----------|--0----0----0----0--0--|-----2--------0-----------|
--------3--------2--0-----|--2----2----2----2--2--|--------3--------2--0-----|
--2--------2-----------1--|--2----2----2----2--2--|--2--------2-----------1--|
--------------------------|--2----2----2----2--2--|--------------------------|
--------------------------|--0----0----0----0--0--|--------------------------|
--------------------------|--0----0----0----0--0--|--------------------------|


  Q    Q    Q    E  E     E  E  E  E  E  E  E  E     Q    Q    Q    E  E   
--0----0----0----0--0--|-----2--------0-----------|--0----0----0----0--0--|
--2----2----2----2--2--|--------3--------2--0-----|--2----2----2----2--2--|
--2----2----2----2--2--|--2--------2-----------1--|--2----2----2----2--2--|
--2----2----2----2--2--|--------------------------|--2----2----2----2--2--|
--0----0----0----0--0--|--------------------------|--0----0----0----0--0--|
--0----0----0----0--0--|--------------------------|--0----0----0----0--0--|


  E  E  E  E  E  E  E  E     H        Q    E  E     E  E  E  E  E  E  E  E   
-----2--------0-----------|--0--------0----0--0--|-----2--------0-----------|
--------3--------2--0-----|--2--------2----2--2--|--------3--------2--0-----|
--2--------2-----------1--|--2--------2----2--2--|--2--------2-----------1--|
--------------------------|--2--------2----2--2--|--------------------------|
--------------------------|--0--------0----0--0--|--------------------------|
--------------------------|--0--------0----0--0--|--------------------------|


  Q    Q    Q    E  E     E  E  E  E  E  E  E  E     Q    Q    Q    E  E   
--0----0----0----0--0--|-----2--------0-----------|--0----0----0----0--0--|
--2----2----2----2--2--|--------3--------2--0-----|--2----2----2----2--2--|
--2----2----2----2--2--|--2--------2-----------1--|--2----2----2----2--2--|
--2----2----2----2--2--|--------------------------|--2----2----2----2--2--|
--0----0----0----0--0--|--------------------------|--0----0----0----0--0--|
--0----0----0----0--0--|--------------------------|--0----0----0----0--0--|


  E  E  E  E  E  E  E  E     Q    Q    Q    E  E     E  E  E  E  E  E  E  E   
-----2--------0-----------|--0----0----0----0--0--|-----2--------0-----------|
--------3--------2--0-----|--2----2----2----2--2--|--------3--------2--0-----|
--2--------2-----------1--|--2----2----2----2--2--|--2--------2-----------1--|
--------------------------|--2----2----2----2--2--|--------------------------|
--------------------------|--0----0----0----0--0--|--------------------------|
--------------------------|--0----0----0----0--0--|--------------------------|


  Q    Q    Q    Q       E  E  E  E  E  E  E  E     Q    Q    E  E  E.  S  
----------------------|-----2--------0--------0--|--0----0----0--0--0---0-|
--2----2----2----2----|--------3--------2--0-----|--5----5----2--5--5-----|
--2----2----2----2----|--2--------2--------------|------------------------|
--2----2----2----2----|--------------------------|------------------------|
----------------------|--------------------------|------------------------|
----------------------|--------------------------|------------------------|


  E  E  E  E  E  E  E  E     Q    Q    E  E  E.  S    E  E  E  E  E  E  E  E   
-----2--------0--------0--|--0----0----0--0--0---0-|-----2--------0--------0--|
--------3--------2--0-----|--5----5----2--5--5-----|--------3--------2--0-----|
--2--------2--------------|------------------------|--2--------2--------------|
--------------------------|------------------------|--------------------------|
--------------------------|------------------------|--------------------------|
--------------------------|------------------------|--------------------------|


  Q    Q    E  E  E.  S    E  E  E  E  E  E  E  E     Q    Q    E  E  E.  S  
--0----0----0--0--0---0-|-----2--------0--------0--|--0----0----0--0--0---0-|
--5----5----2--5--5-----|--------3--------2--0-----|--5----5----2--5--5-----|
------------------------|--2--------2--------------|------------------------|
------------------------|--------------------------|------------------------|
------------------------|--------------------------|------------------------|
------------------------|--------------------------|------------------------|


  E  E  E  E  E  E  E  E     Q    Q    E  E  E.  S    E  E  E  E  E  E  E  E   
-----2--------0--------0--|--0----0----0--0--0---0-|-----2--------0--------0--|
--------3--------2--0-----|--5----5----2--5--5-----|--------3--------2--0-----|
--2--------2--------------|------------------------|--2--------2--------------|
--------------------------|------------------------|--------------------------|
--------------------------|------------------------|--------------------------|
--------------------------|------------------------|--------------------------|


  Q    Q    E  E  E.  S    E  E  E  E  E  E  E  E     Q    Q    E  E  E.  S  
--0----0----0--0--0---0-|-----2--------0--------0--|--0----0----0--0--0---0-|
--5----5----2--5--5-----|--------3--------2--0-----|--5----5----2--5--5-----|
------------------------|--2--------2--------------|------------------------|
------------------------|--------------------------|------------------------|
------------------------|--------------------------|------------------------|
------------------------|--------------------------|------------------------|


  E  E  E  E  E  E  E  E    
-----2--------0--------0--||
--------3--------2--0-----||
--2--------2--------------||
--------------------------||
--------------------------||
--------------------------||

Fuente: Tusacordes