a b c d e f g h i j k l m n o p q r s t u v w x y z 0-9

While My Guitar Gently Weeps

The Beatles

Am
F
G
D
E
C
A
C#m
F#m
Bm
			
INTRO:

Am Am/G D9/F# F Am G D E


Am            Am/G         D9/F#                F
I look at you all see the love there that's sleeping
Am           G           D   E
While my guitar gently weeps
Am            Am/G         D9/F#            F
I look at the floor and I see it need sweeping
Am           G           C   E
Still my guitar gently weeps


A            C#m F#m    C#m
I don't know why nobody told you
Bmx2                 E E/F# E/G#
how to unfold you love
A            C#m F#m         C#m
I don't know how someone controlled you
Bmx2                 E E/F# E/G#
they bought and sold you


Am            Am/G         D9/F#           F
I look at the world and I notice it's turning
Am           G           D   E
While my guitar gently weeps
Am            Am/G         D9/F#            F
With every mistake we must surely be learning
Am           G           C   E
Still my guitar gently weeps


SOLO:

|---------------------------------------------------------------------------|
|-----------------------13b--15b17?13---------------------------------------|
|---pb17r14---12h14b17----------------14-12h14b17-14b17~~--12h14-b17-14b17--|
|---------------------------------------------------------------------------|
|---------------------------------------------------------------------------|
|---------------------------------------------------------------------------|
|---------------------------------15-------------------15b17?pb17-pb17-pb17-|
|------------15b17r15p13-15b17========-pb17r15--15--13----------------------|
|-12h14-b17-----------------------------------------------------------------|
|---------------------------------------------------------------------------|
|---------------------------------------------------------------------------|
|---------------------------------------------------------------------------|
|---b17r15--b17--12-------15-------------------15--------------|
|-------------------15b17====pb17r15--13h15b17====pb17r15--13--|
|--------------------------------------------------------------|
|--------------------------------------------------------------|
|--------------------------------------------------------------|
|--------------------------------------------------------------|
|-------------------------------------------------------------|
|-------------------------------------------------------------|
|-14b17r14-12h14b17--14b17---------12-------------------------|
|---------------------------12h14----14?-12p10-12---10h12-10--|
|-------------------------------------------------------------|
|-------------------------------------------------------------|
|--------------------------------------17------------------|
|---------------------13/15?15/17---17----20b22?22r20b22---|
|---------12h14?14/17--------------------------------------|
|--12/14---------------------------------------------------|
|----------------------------------------------------------|
|----------------------------------------------------------|


A            C#m F#m    C#m
I don't know how you were diverted
Bmx2                E E/F# E/G# 
you were perverted too
A            C#m F#m         C#m
I don't know how you were inverted
Bmx2            E E/F# E/G#
no one alerted you


Am            Am/G         D9/F#                F
I look at you all see the love there that's sleeping
Am           G           D   E
While my guitar gently weeps
Am            Am/G         D9/F#            F
I look at the floor and I see it need sweeping
Am           G           C   E
Still my guitar gently weeps

FINALIZA CON LOS MISMOS ACORDES QUE DEL PRINCIPIO DOS VECES

Am Am/G D9/F# F Am G D E
Am Am/G D9/F# F Am G D EFuente: Tus acordes