a b c d e f g h i j k l m n o p q r s t u v w x y z 0-9

Twist And Shout

The Beatles

			
Well, shake it up, baby, now, shake it up, baby
Twist and shout. twist and shout
C'mon, c'mon, c'mon, c'mon, baby, now, come on baby
Come on and work it on out. work it on out

Well, work it on out, honey. work it on out
You know you look so good. look so good
You know you got me goin', now, got me goin'
Just like I knew you would. like I knew you would

Well, shake it up, baby, now, shake it up, baby
Twist and shout. twist and shout
C'mon, c'mon, c'mon, c'mon, baby, now, come on baby
Come on and work it on out. work it on out

You know you twist your little girl, twist, little girl
You know you twist so fine. twist so fine
Come on and twist a little closer, now, twist a little closer
And let me know that you're mine. let me know you're mine

Shake it up, baby, now, shake it up, baby
Twist and shout. twist and shout
C'mon, c'mon, c'mon, c'mon, baby, now, come on baby
Come on and work it on out. work it on out

You know you twist your little girl, twist, little girl
You know you twist so fine. twist so fine
Come on and twist a little closer, now, twist a little closer
And let me know that you're mine. let me know you're mine

Well, shake it, shake it, shake it, baby, now. shake it up baby
Well, shake it, shake it, shake it, baby, now. shake it up baby
Well, shake it, shake it, shake it, baby, now. shake it up baby

Intro:
e|----------5----3---------------------5----3---5-5-5-5-------|
B|----------7----3----5-5-5-5----------7----3---5-5-5-5-------|
G|----------7----4----6-6-6-6----------7----4---6-6-6-6-------|
D|----------7----5----7-7-7-7----------7----5---7-7-7-7-------|
A|------4-5------5----7-7-7-7------4-5------5---7-7-7-7-------|
E|--5-7--------3----5----------5-7--------3----5--------------|


A          A             A           A7       A7
Ahhhhhhhhh Ahhhhhhhhhhhh Ahhhhhhhhhh Ahhhhhhh Ahhhhhh


Solo:
e|--------3-2-2-0----------3-2-2-0----------3-2-2-0----------3-2-2-0------|
B|------5-5-3-3-1-3------5-5-3-3-1-3------5-5-3-3-1-3------5-5-3-3-1-3----|
G|--4-4-5---------4--4-4-5---------4--4-4-5---------4--4-4-5---------4----|
D|--5-5--------------5-5--------------5-5--------------5-5----------------|
A|------------------------------------------------------------------------|
E|------------------------------------------------------------------------|

Ending:            
e|--------------------------5-------------------------|
B|--------------------------5-------------------------|
G|---------7-9-11-12--------5-------------------------|
D|--7-9-11-7-9-11-12--------4-------------------------|
A|--7-9-11-5-7-9--10--------5-------------------------|
E|--5-7-9---------------------------------------------|Fuente: Tus acordes