a b c d e f g h i j k l m n o p q r s t u v w x y z 0-9

Twist And Shout

The Beatles

			
intro
1------------------
2------------------
3------------------
4-------0-0--------
5-0-2-4-------0-0--      el "0" se hace varias veces
6----------3-3-----

SOLO:

e--------------------------------
B-----------3---2----------------
G--------4--4---2--0--4--2-------
D--4--4--5---------2--5--4--4----
A--5--5---------------------5----
E--------------------------------
se repite 4 veces



FINAL 1:

e-------------------------------
B-------------------------------
G-------------------------------
D-------------------------------
A-------------------------------
E-6--7--8--9--10--11--12--------

Fuente: Tusacordes