a b c d e f g h i j k l m n o p q r s t u v w x y z 0-9

Twist And Shout

The Beatles

			
*4/11/2010
*por smashjes
*email o msn por cualquier duda o comentario: smashjes@hotmail.com
*Álbum: "Please Please Me" 1963


INTRO/RIFF PRINCIPAL:
e-------------------------------------------------------------
B-------------------------------------------------------------
G-------------------------------------------------------------
D--------------------7----------------------------------------
A-----------4---5----5-----5--5---7-7------------------4----5-
E ----5--7-----------------3--3---5-5--5-5-5-5-5--7-----------


WELL, SHAKE IT UP, BABY, NOW, SHAKE IT UP, BABY
TWIST AND SHOUT. TWIST AND SHOUT
CīMON CīMON, CīMON, CīMON BABY, NOW, COME ON BABY
COME ON AND WORK IT ON OUT WORK IT ON OUT

WELL, WORK IT ON OUT, HONEY WORK IT ON OUT
YOU KNOW YOU LOOK SO GOOD LOOK SO GOOD
YOU KNOW YOU GOT ME GOINī, NOW GOT ME GOINī
JUST LIKE I KNEW YOU WOULD LIKE I KNEW YOU WOULD

WELL, SHAKE IT UP, BABY, NOW SHAKE IT UP, BABY
TWIST AND SHOUT TWIST AND SHOUT
CīMON, CīMON, CīMON, CīMON, BABY, NOW COME ON BABY
COME ON AND WORK IT ON OUT WORK IT ON OUT

YOU KNOW YOU TWIST YOUR LITTLE GIRL TWIST, LITTLE GIRL
Letras4U.com ŧ letras traducidas al espaņol
YOU KNOW YOU TWIST SO FINE TWIST SO FINE
COME ON AND TWIST A LITTLE CLOSER, NOW TWIST A LITTLE CLOSER
AND LET ME KNOW THAT YOUīRE MINE LET ME KNOW YOUīRE MINE

SOLO:

e-------------------------------
B----------3---2----------------
G-------4--4---2--0--4--2-------
D--4-4--5---------2--5--4--4----
A--5-5---------------------5----
E-------------------------------
se repite 4 veces

INTRO/RIFF PRINCIPAL:
e-------------------------------------------------------------
B-------------------------------------------------------------
G-------------------------------------------------------------
D--------------------7----------------------------------------
A-----------4---5----5-----5--5---7-7------------------4----5-
E ----5--7-----------------3--3---5-5--5-5-5-5-5--7-----------

BABY, NOW SHAKE IT UP, BABY
TWIST AND SHOUT TWIST AND SHOUT
CīMON, CīMON, CīMON, CīMON, BABY, NOW COME ON BABY
COME ON AND WORK IT ON OUT WORK IT ON OUT

YOU KNOW YOU TWIST YOUR LITTLE GIRL TWIST, LITTLE GIRL
YOU KNOW YOU TWIST SO FINE TWIST SO FINE
COME ON AND TWIST A LITTLE CLOSER, NOW TWIST A LITTLE CLOSER
AND LET ME KNOW THAT YOUīRE MINE LET ME KNOW YOUīRE MINE

WELL, SHAKE IT, SHAKE IT, SHAKE IT, BABY, NOW SHAKE IT UP BABY
WELL, SHAKE IT, SHAKE IT, SHAKE IT, BABY, NOW SHAKE IT UP BABY
WELL, SHAKE IT, SHAKE IT, SHAKE IT, BABY, NOW SHAKE IT UP BABY



FINAL 1:

e-------------------------------
B-------------------------------
G-------------------------------
D-------------------------------
A-------------------------------
E-6--7--8--9--10--11--12--------

FINAL 2:
despues del fina 1

D9

Fuente: Tusacordes