a b c d e f g h i j k l m n o p q r s t u v w x y z 0-9

Twist And Shout

The Beatles

			
1-----------------------------------------
2-----------------------------------------
3-----------------------------------------
4-------0-0-------------------------------
5-0-2-4----------0-0-0-0-0-0--------------
6-----------3-3---------------------------

LA OTRA PARTE

1-----------------------------------------
2-----------------------------------------
3-------0-4-2--2-0------------------------
4-0--0-------------4-0--------------------
5-----------------------------------------
6-----------------------------------------

Fuente: tusacordes.com