a b c d e f g h i j k l m n o p q r s t u v w x y z 0-9

Ticket To Ride

The Beatles

A
Bm
E
F#m
D
			
Intro [la intro se repite en toda la cancion]

-|-----0-----------0-----0-----------0--------
-|--------2-----0-----------2-----0-----------
-|--2--------2--------2--------2--------------
-|--------------------------------------------
-|--------------------------------------------
-|--------------------------------------------


Vers0:
A
I think I'm gonna be sad I think it's today, yeah
Bm E
The girl that's driving me mad is going away
F#m D F#m Gmaj7
She's got a ticket to ride she's got a ticket to ride
F#m E A 
She's got a ticket to ride and she don't care.
Then second verse...
Then ...
Middle:
D
I don't know why she's riding so high
E
She ought to think twice she ought to do right by me
D
Before she gets to saying goodbye
E
She ought to think twice she ought to do right by me
Solo corto
-|----------------------10------b[14]12--10--12----
-|--b[12]10--8-----/12------12---------------------
-|--------------9----------------------------------
-|-------------------------------------------------
-|-------------------------------------------------
-|-------------------------------------------------
Then another verse, then another middle, then another verse, then
Ending:
A
My baby don't care...

Fuente: Lacuerda