a b c d e f g h i j k l m n o p q r s t u v w x y z 0-9

Ticket To Ride

The Beatles

			
intro:

-|-----0-----------0-----0-----------0--------
-|--------2-----0-----------2-----0-----------
-|--2--------2--------2--------2--------------
-|--------------------------------------------
-|--------------------------------------------
-|--------------------------------------------

solo: 

-|----------------------10------b1412--10--12----
-|--b1210--8-----/12------12---------------------
-|--------------9----------------------------------
-|-------------------------------------------------
-|-------------------------------------------------
-|-------------------------------------------------

Fuente: tusacordes.com