a b c d e f g h i j k l m n o p q r s t u v w x y z 0-9

Thill There Was You

The Beatles

			
SOLO:

E ----------------------------------------
A ----------------------------------------
D ------6---7---9-----------9---7---6-----
G -------------------9---7----------------
B ----------------------------------------
e ----------------------------------------


E-------------------------------------------
A-9---7---9---------------------------------
D------------6---7-----------9---7---6---7--
G---------------------7---6-----------------
B-------------------------------------------
e-------------------------------------------


E----------------------------------------
A--------7---9---7---9---7---9---7-------
D----------------------------------------
G----------------------------------------
B----------------------------------------
e----------------------------------------


E----------------------------------------
A----------------------------------------
D----------------------------------------
G-----5------5---7---5---7---5---7---5---
B----------------------------------------
e----------------------------------------

Fuente: tusacordes.com