a b c d e f g h i j k l m n o p q r s t u v w x y z 0-9

The End

The Beatles

			
Lyrics:
Oh, yeah! All right! Are you gonna be in my dreams tonight?
Oh, yeah! All right! Are you gonna be in my dreams tonight?
And in the end
The love you take
Is equal to the love you make
Ah

h-hammeron
p-pullof
/-slideup
\-slidedown
*-harmonics
b-bend
r-bend release
~-vibrato
w-whammy bar

Guitar1
e-----------------------------------------------------------------|
b------13b--------15b---------------------------------------------|
g--12b---------14b------------------------------------------------|
d-----------------------------------------------------------------|
a---------------------------4-----4---5--6-7---8--9------7-7------|
E---------------------------5-----5---7--8-9--10-11-----------9---|

Guitar 2
e--5---5-------7---7----------------------------------------------|
b--5---7-------7---9----------------------------------------------|
g--6---7-------8---9--------6-----6---7-8--9--10-11---------------|
d--7---7-------9---9--------7-----7---9-10-11-12-13---------------|
a--7---5-------9---7-------------------------------------5-3------|
E--5-----------7----------------------------------------------5---|

Drum fill

Guitar1
e-----------------------------------------------------------------|
b------13b--------15b---------------------------------------------|
g--12b---------14b------------------------------------------------|
d-----------------------------------------------------------------|
a---------------------------4-----4----------------------7-7------|
E---------------------------5-----5---7--8-9--10-11-----------9---|

Guitar 2
e--5---5-------7---7----------------------------------------------|
b--5---7-------7---9----------------------------------------------|
g--6---7-------8---9--------6-----6---7-8--9--10-11---------------|
d--7---7-------9---9--------7-----7---9-10-11-12-13---------------|
a--7---5-------9---7-------------------------------------5-3------|
E--5-----------7----------------------------------------------5---|

8-bar drum solo

You play these two chords during the solo and before itafter drum solo:
A7=x x x x x x  D7=x x x x x x
   5 7 5 6 8 5    101210111310
This part is the famous solo played by Paul,George, and John,in that order.

Paul

e------------------------------------------------------------------|
b------------10--------10-8----------------------------------------|
g--9-9-9--9---------9--------7/5----5h7---5------------------------|
d--------------------------------7------------7p5------------------|
a------------------------------------------------------------------|
E------------------------------------------------------------------|

George

e------------------------------------------------------------------|
b-----10----10--13b---13r--10h13p10---10----10---------------------|
g--12----12------------------------12---12----9--7--5--------------|
d--------------------------------------------------------7---------|
a------------------------------------------------------------------|
E------------------------------------------------------------------|

John

e------------------------------------------------------------------|
b--12-12--12-12p10-12--12-12p10-12p10--12--12--12-12-12\---5-------|
g--12-12--12-12----12--12-12----12-----12--12--12-12-12\5--5-------|
d----------------------------------------------------------5-------|
a------------------------------------------------------------------|
E------------------------------------------------------------------|

Paul

e-8-8-8-8---------------5--5-8\10--|
b---------5-------5-4-5---8--------|
g-----------5---5------------------|
d-------------7--------------------|
a----------------------------------|
E----------------------------------|

George

e----------------------------------------|
b---555---5555---555--7b-7r--------8b----|
g---555---5555---555--7b-7r--5h7p5-------|
d-7-----7------7-------------------------|
a----------------------------------------|
E----------------------------------------|

John

e----------------------------------------------|
b----------------------------------------------|
g----------------------------------------------|
d------------0-----0-----0---2p0-0-----0-------|
a------0--3b---3b-----3----3--------3---0------|
E-0--3-----------------------------------------|

Paul

e-------------------------------------------------------|
b-------------------------------------------------------|
g----------5-5--5-5-----------5-5--5-5------------------|
d-5-5--5-5----------5-5--5--5-----------5\2--2p0--------|
a-------------------------------------------------3p0-0-|
E-------------------------------------------------------|

George

e-----------------15b----15r-----------|
b-------------13--------------13h15p13-|
g--9/12-12/14--------------------------|
d--------------------------------------|
a--------------------------------------|
E--------------------------------------|

John

e-------------|------------------------|
b-------------|------------------------|
g------5--7p5-|-7p5-7p5-7p5-7p5-7p5-7p5|repeat
d--7---5--7p5-|-7p5-7p5-7p5-7p5-7p5-7p5|
a--7----------|------------------------|
E-------------|------------------------|


And in the end            The love you take

e-------------9/8\9-9/7\9-----------------------7/6\7-|
b-----------------------------------------------------|
g-------------9/8\9-9/7\9-----------------------9/8\9-|
d-----------------------------------------------------|
a-----------------------------------------------------|
E-----------------------------------------------------|

Is equal to the love you make
e-------------------------------------------8-10b---8--8--|
b-----------------------------------------8------------8--|
g---------------------------------------9-----------------|
d------------------------------------10-------------------|
a-------------------------------7-10----------------------|
e-----------------------------8---------------------------|
                 rake
e----------------11--13b-13--11---------------------------|
b---------------11--------------13b---13r--10h13--15b-----|
g--------------12-----------------------------------------|
d---------------------------------------------------------|
a---------------------------------------------------------|
E---------------------------------------------------------|

Fuente: Tusacordes