a b c d e f g h i j k l m n o p q r s t u v w x y z 0-9

Taxman

The Beatles

			
este es el solo de taxman.

|----------------------------|-------------10----|------------------|------------------------------------|
|------------------------6-8-|-8b10r8-6----------|-6h8-6h8-7--------|------------------------------------|
|-7-7-7--7-7-7--7-7-7--7-----|-----------7----7--|------------7--7--|-7-6h7p6S4-6-4h6p4S2-4-2h4p2p0h2S4--|
|-0--------------------------|-------------------|------------------|------------------------------------|
|----------------------------|-------------------|------------------|------------------------------------|
|----------------------------|-------------------|------------------|------------------------------------|

|-------------|---------------------------10--||
|-------------|---8-6===6---6-6-6-8-6----------||
|-5-7----7----|-------7---7-------------7------||
|-----0----0--|--------------------------------||
|-------------|--------------------------------||
|-------------|--------------------------------||

Fuente: tusacordes.com