a b c d e f g h i j k l m n o p q r s t u v w x y z 0-9

Stand By Me

The Beatles

			
A                      F#m                 D
   G|---1-2--2-----1-2--2----2-1---------------------------
   D|-2----------2---------------4--4---2-4--4---4-2-0--0--
   A|------------------------------------------------------
   E|------------------------------------------------------
          E          A
   G---------------1-2--2-----1-2--2---|
   D--0-4-2--2---2----------2----------|
   A-----------------------------------|
   E-----------------------------------|
 
   INTRO:
   
   A  F#m  D E A
   
   
  VERSO 1:
   
            A
   When the night has come

   F#m
     And the land is dark

           D           E                A
   And the moon is the only light we'll see

         A
   No, I won't be afraid

         F#m
   No, I won't be afraid

           D           E               A
   Just as long as you stand, stand by me
   
   
   CORO:
   
       A
   So, darling, darling, stand by me

       F#m
   Oh, stand by me

       D      E
   Oh, stand

   
   stand by me

   A
     stand by me
   
   
  VERSO 2:
   
   If the sky that we look upon
   Should tumble and fall
   Or the mountain should crumble to the sea,
   I won't cry, I won't cry,
   No, I won't shed a tear
   Just as long as you stand, stand by me
     
   
   CORO:
   
   And darling, darling, stand by me
   Oh, stand by me
   Whoh, stand now
   stand by me
   stand by me
   
   
   SOLO:
   
   Play over same chords as usual
   
   
   CORO:
   
   And darling, darling, stand by me
   oh, stand by me
   whoh, stand now
   stand by me
   stand by me
   Whenever you're in trouble just stand by me
   oh stand by me...[fade out singing stand by me]

Fuente: Tusacordes