a b c d e f g h i j k l m n o p q r s t u v w x y z 0-9

Stand By Me

The Beatles

			
1-------------------------------------------------------------
2-------------------------------------------------------------
3-------------------------------------------------------------
4-------------------------------------------------------------
5----2--3--3-----2--3--3-----3--2--0--0-----0---0-------------
6--3---------3--------------------------3---------------------


1-------------------------------------------------------------
2-------------------------------------------------------------
3-------------------------------------------------------------
4-------------------------------------------------------------
5----------------------0----------2--3--3------2--3--3--------
6-----3---1---1-----1-----3--3--3----------3------------------

Y SE REPITE

Fuente: tusacordes.com