a b c d e f g h i j k l m n o p q r s t u v w x y z 0-9

She Loves You

The Beatles

			
The Beatles
She Loves You
Bajo
Intro: 
"She Loves You, Yea, Yea, Yea..." 

G------------------------------------------------------ 
D-2-2----2-2--------------------5-----5---5-5----5-5--- 
A----2------2------7-----7---3-3---3-3--3----5------5-- 
E---------------5-5---5-5------------------------------ 

"You Think You've Lost Her Love..." 

G------------------------------------------------------ 
D-5-55--2-22--------5-55------------------------------- 
A-------------2-22------------------------------------- X2 
E------------------------------------------------------ 

"She Says She Loves You..." 

G-------------------------------------------------------- 
D--55-----55--5--2-22--2-22-------5----5-------7-----7--- 
A----5------5--------2-----2---3-3--3-3--3--5-5---5-5---- 
E-------------------------------------------------------- 

She said you hurt her so..." 

G------------------------------------------------------ 
D-5-55--2-22--------5-55------------------------------- 
A-------------2-22------------------------------------- X2 
E------------------------------------------------------ 

"She Says She Loves You..." 

G-------------------------------------------------------- 
D--55-----55-----5-22----22-------5----5-------7-----7--- 
A----5------5--------2-----2---3-3--3-3--3--5-5---5-5---- 
E-------------------------------------------------------- 


"She Loves You, Yea, Yea, Yea..." 

G------------------------------------------------------ 
D-2-2----2-2--------------------5-----5---5-5----5-5--- 
A----2------2------7-----7---3-3---3-3--3----5------5-- 
E---------------5-5---5-5------------------------------ 


"...Love Like That..." 

G------------------------------------------ 
D------------------------7--5-5---5-5------ 
A-----3----3----3-----5-5------5-----5----- 
E------------------------------------------ 

"You know it's up to you..." 

G------------------------------------------------------ 
D-5-55--2-22--------5-55------------------------------- 
A-------------2-22------------------------------------- X2 
E------------------------------------------------------ 


"Because She Loves You And You Know..." 

G-------------------------------------------------------- 
D-5-5---5-5------5-22----22-------5----5-------7-----7--- 
A----5------5--------2-----2---3-3--3-3--3--5-5---5-5---- 
E-------------------------------------------------------- 

"She Loves You, Yea, Yea, Yea..." 

G-------------------------- 
D-2-2----2-2--------------- 
A----2------2------7-----7- 
E---------------5-5---5-5-- 


"...Love Like That..." 

G------------------------------------------ 
D---------------------------5-5-5--2-22---- 
A-----3----3----3-----5-5-5----5----------- 
E------------------------5----------------- 



"...Love Like That..." 

G------------------------------------------ 
D------------------------7---5-5----2-2---- 
A-----3----3----3-----5-5-------5------2--- 
E------------------------------------------ 


"...Love like that..." 

G----------------------- 
D----------------------- 
A-----3----3----3------- 
E----------------------- 

"You know you shoouuuld...." 

G---------------------------- 
D---------------------------- 
A----5----------------------- ring out 
E---------------------------- 

"be glaaaaad" 
   
G-------------------------------------------- 
D-5-5---5-5------5-22----22-------5----5--5-- 
A----5------5--------2-----2---3-3--3-3------ 
E--------------------------------------------

Fuente: Lacuerda