a b c d e f g h i j k l m n o p q r s t u v w x y z 0-9

Run For Your Life

The Beatles

Bm
D
Am
E
G
F#
			
Well I'd rather see you dead little girl
		        Bm
		Than to be with another man
	              D
		You better keep your head little girl
	                Bm
		Or you won't know where I Am

[chorus]	        	                     E
		You better run for your life if you can little girl
		 Bm                    E
		Hide your head in the sand little girl
		 Bm                     G  
		Catch you with another man
		 F#        Bm               D
		That's the end little girl.













[verse 3]
                 D 
		Let this be a sermon
                        Bm
		I mean every thing I said
                 D
		Baby I'm determined
                          Bm
		That I'd rather see you dead

[chorus]
                                                     E
		You better run for your life if you can little girl
		 Bm                    E
		Hide your head in the sand little girl
		 Bm                     G  
		Catch you with another man
		 F#        Bm               D
		That's the end little girl.

 e. guitar 1
|----------|------------|------------|------------|------------|---------|
|----------|------1---0-|------------|------1---0-|------------|---------|
|----------|------------|-2--------2-|------------|-2--------2-|---------|
|----------|-0----------|-----3--4---|-0----------|-----3--4---|---------|
|--2--3--4-|------------|------------|------------|------------|---------|
|----------|------------|------------|------------|------------|---------|

 e. guitar 2
|----------|------------|------------|------------|------------|---------|
|---------5|/7----7-----|----------5-|/7----7-----|----------5-|/7----7--|
|---------5|/7----5-----|----------5-|/7----5-----|----------5-|/7----5--|
|---------5|/7----7-----|----------5-|/7----7-----|----------5-|/7----7--|
|----------|------------|------------|------------|------------|---------|
|----------|------------|------------|------------|------------|---------|



[verse 4]
 		      D
		I'd rather see you dead little girl
		        Bm
		Than to be with another man
	              D
		You better keep your head little girl
	                Bm
		Or you won't know where I Am



                                                     E
		You better run for your life if you can little 
		 Bm                    E
		Hide your head in the sand little girl
		 Bm                     G  
		Catch you with another man
		 F#        Bm               D
		That's the end little girl.

Fuente: Lacuerda