a b c d e f g h i j k l m n o p q r s t u v w x y z 0-9

Pretty Woman

The Beatles

			
1---------------------------------------------------------------
2---------------------------------------------------------------
3---------------------------------------------------------------
4-------------------------------------------------4--2--0-------
5------------2--5---------2--5--------------2--5----------------
6--0--0--4----------0--0-----------0--0--4-----------------0--0- 

1---------------------------------------------------------------
2---------------------------------------------------------------
3---------------------------------------------------------------
4------------4--2--0------------------4--2--0-------------------
5------2--5---------------------2--5----------------------------
6--4------------------0--0--4------------------------------------

Fuente: Tusacordes