a b c d e f g h i j k l m n o p q r s t u v w x y z 0-9

Ob-la-di Ob-la-da

The Beatles

			
Ob-La-Di Ob-La-Da                    


                          John Lennon & Paul Mc Cartney
Pista 1
Arrangement de Marcel Dadi



     A           A            
     E  E  E  E  E  E  E  E   
E||--------------------------|
B||--2--2--2--2--2--2--0-----|
G||-----------------------2--|
D||--------2-----------2-----|
A||--0-----------0-----------|
E||--------------------------|


  E                          E7                       
  E  E  E  E  E  E  E  E     E  E  E  E  E  E  E  E   
--------------------------|--------------------------|
-----0-----0-----------3--|-----3--3--3--3--3--2--0--|
--1--------------1--------|--------------------------|
--------2-----------2-----|--------2-----------2-----|
--2-----------------------|--------------2-----------|
--------------0-----------|--0-----------------------|


  A                         A7                       
  Q    E  E  E  E  E  E     E  E  E  E  E  E  E  E   
-------------------------|--0--0--0--0--0--0--------|
-------2--------2--------|--------------------3-----|
--2-------2-----------2--|-----------------------6--|
-------2-----------2-----|--------5-----------5-----|
--0----------------------|--0-----------------------|
-------------0-----------|--------------0-----------|


  D                          A7          E6           
  E  E  E  E  E  E  E  E     E  E  E  E  E  E  E  E   
-----0-----2-----2--0-----|-----0--------------------|
--3--------------------3--|--------3-----0--3-----0--|
--------2-----------2-----|--6--------6--------6-----|
--0-----------------------|--------5-----------6-----|
--------------0-----------|--0-----------------------|
--------------------------|--------------0-----------|


  A                                                 
  Q    Q    E  E  E  E     E  E  E  E  E  E  E  E   
------------------------|-----------------------0--|
------------------2--5--|--------2--5--------2-----|
--2------------2--------|-----2-----------2--------|
-------2----------2-----|--------2-----------2-----|
--0---------------------|--0-----------------------|
------------0-----------|--------------0-----------|


  E           F#m7           
  E  E  E  E  E    E  E  E   
-----------5-------------0--|
--------0-------------2-----|
-----1-------------2--------|
--------2-------------4-----|
----------------------------|
--0-----------2-------------|


  A7          E              A                      
  E  E  E  E  E  E  E  E     Q    Q    E  E  E  E   
-----0--------------------|---------------------0--|
--------3-----3-----0-----|------------------2-----|
-----------6-----6-----2--|---------------2--------|
--------5-----------6-----|-------2----------2-----|
--0-----------------------|--0---------------------|
--------------0-----------|------------0-----------|


  E  E  E  E  E  E  E  E   
-----------0-----------0--|
--------2-----------2-----|
-----2-----------2--------|
--------2-----------2-----|
--0-----------------------|
--------------0-----------|


  E           F#m7           
  E  E  E  E  E    E  E  E   
-----------5-------------0--|
--------0-------------2-----|
-----1-------------2--------|
--------2-------------4-----|
----------------------------|
--0-----------2-------------|


  A7          E              A                      
  E  E  E  E  E  E  E  E     Q    Q    E  E  E  E   
-----0--------------------|------------------------|
--------3-----3-----0-----|------------------------|
-----------6-----6-----2--|------------------------|
--------5-----------6-----|-------2----------------|
--------------------------|--0------------0--2--4--|
--0-----------0-----------|------------0-----------|


  D                                                  
  E  E  E  E  E  E  E  E     E  E  E  E  Q    E  E   
-----------0--2-----0--2--|--5--------2-------------|
--------3--------3--------|-----3----------------2--|
-----2--2-----------2-----|--------2----------2-----|
--0-----------------------|--0----------------------|
--------------0-----------|--------------0----------|
--------------------------|-------------------------|


  A                                      A7           
  E  E  E  E  E  E  E  E     E  E  E  E  E  E  E  E   
--------------------------|--------------------------|
-----2-----2--0--0-----0--|--------------------------|
--------------------------|--2--2-----2--0--0-----0--|
--------2-----------2-----|--------2-----------2-----|
--0-----------------------|--0-----------------------|
--------------0-----------|--------------0-----------|


  D                                                 
  E  E  E  E  E  E  E  E     E  E  E  E  Q    Q     
-----------0--2-----0--2--|--5--------2------------|
--------3--------3--------|-----3------------------|
-----2--------------2-----|--------2----------2----|
--4-----------------------|--0---------------------|
--------------0-----------|--------------0---------|
--------------------------|------------------------|


  A                          E                         
  E  E  E  E  E  E  E  E     E  E  E  E  E  E  E  E    
--------------------------|--------------0-----------||
--2--2--2--3-----2-----2--|-----0-----------3--2--0--||
--------------------------|-----------1--------------||
--------2-----------2-----|--------2-----------2-----||
--0-----------------------|--------------------------||
--------------0-----------|--0-----------0-----------||




Duration Legend
---------------
W - whole
H - half
Q - quarter
E - 8th
S - 16th
T - 32nd
X - 64th
. - note dotted
|-n-|  - n-tuplets


Tablature Legend
----------------
L - tied note
x - dead note
g - grace note
n - ghost note
> - accentuded note
NH - natural harmonic
AH - artificial harmonic
TH - tapped harmonic
SH - semi harmonic
PH - pitch harmonic
h - hammer on
p - pull off
b - bend
br - bendRelease
pb - preBend
pbr - preBendRelease
brb - bendReleaseBend
\n/ - tremolo bar dip
\n - tremolo bar dive
-/n - tremolo bar Release up
/n\ - tremolo bar inverted dip
/n - tremolo bar return
-\n - tremolo bar Release down
S - shift slide
s - legato slide
/ -  slide into from below or out of upwards
\ -  slide into from above or out of downwards
~ - vibrato
W - wide vibrato
tr - trill
TP - tremolo picking
T - tapping
S - slap
P - pop
< - fade in
^ - brush up
v - brush down

Fuente: Tusacordes