a b c d e f g h i j k l m n o p q r s t u v w x y z 0-9

Norwegian Wood

The Beatles

			
e---------2-2------------2-2------------2-2------------2-|
B---------3-3------------3-3------------3-3------------3-|
G------2--2-2----4-2-0---2-2-----0------2-2------0-----2-|
D---------------------4--------2---4-0-----------------0-|
A----------------------------------------------3---2-----|
E--------------------------------------------------------|


e---------2-2------------2-2------------2-2------------2-|
B---------3-3------------3-3------------3-3------------3-|
G------2--2-2----4-2-0---2-2-----0------2-2------0-----2-|
D---------------------4--------2---4-0-----------------0-|
A----------------------------------------------3---2-----|
E--------------------------------------------------------|



   E
I once had a girl,

or should I say, she once had me.

She showed me her room,

isn't it good, norwegian wood?


 Em                                        A   
She asked me to stay and she told me to sit anywhere,
 Em                                           F#m   Eb
So I looked around and I noticed there wasn't a chair.


  Em
I sat on a rug, biding my time,

drinking her wine.

We talked until two
                                   E
and then she said, "It's time for bed".


  Em                                                 A 
She told me she worked in the morning and started to laugh.
 Em                                                 F#m   Eb
I told her I didn't and crawled off to sleep in the bath.


  E
And when I awoke

I was alone, this bird had flown.

So I lit a fire,

isn't it good, norwegian wood.

Fuente: Tusacordes