a b c d e f g h i j k l m n o p q r s t u v w x y z 0-9

Michelle

The Beatles

D
Gm
C
Bb
A
Dm
Cm
			
[capo 3ª traste]

[riff ]
E|-----8----8----8----8---8--6--------------|
B|-----9----9----9----9--------9-8----------|
G|--10----9----8----7---6-------------------|
D|------------------------------------------|
A|------------------------------------------|
E|------------------------------------------|

D         Gm      C                 Cb  Bb        A    Bb   A 
Michelle, ma belle, these are words that go together well, my Michelle
D         Gm      C                 Cb  Bb        A    Bb   A 
Michelle, ma belle, sontles mots qui vont tres bien ensemble, tres bien

Dm                                  Cm                  F7 Bb
    I love you, I love you, I love you, that's all I want to say
A         Dm    Gm
until I find a way
      [riff]
I will say the only words I know that you'll understand.

D         Gm      C                 Cb  Bb        A    Bb   A 
Michelle, ma belle, sontles mots qui vont tres bien ensemble, tres bien

Dm                                  Cm                  F7 Bb
 I need to , I need to , I need to I need to make you see
  A         Dm    Gm
oh what you mean to me
       [riff 1]
until I do I'm hoping you will know what I mean
D       Gm
I love you

[solo]
     
E|-------------------------------------------------------------
B|-------------------------------------------------------------
G|-----------3-5-6--6/1-------1-3-----------------------1-------
D|-3--3-5-7--------------5--5------1--3--3-5-6-----2------3-2----
A|----------------------------------------------5----5----------
E|-------------------------------------------------------------

E|-------------------------------
B|---------------------------------
G|-------------1-------------------
D|-------2-3-5-------------------
A|---3-5--------------------------
E|-------------------------------

Dm
I want you, I want you, I want you.
 Cm              F7  Bb
I think you know by now
A            Dm      Gm
I'll get to you somehow.
[riff 1]
Until I Do I'm telling you so
Gm            A 
You'll understand.

D          Gm
Michelle, ma belle
C                  Bb               A 
Sont les mots qui vont très bien ensemble,
Bb            A 
Très bien ensemble.
       Dm       Gm   Dm      Gm  ou [riff 1]
I will say the only words I know that
 Dm           A           D      Gm  D
You'll understand, my Michelle.

terminacon el solo

Fuente: Tusacordes