a b c d e f g h i j k l m n o p q r s t u v w x y z 0-9

Michelle

The Beatles

F
D
C
Fm
			
E------8---------8----------8-----------8-------8--6-----6/8----
B------9---------9----------9-----------9-------9--6--9--6/8----
G--10--------9---------8-----------7--------6------6-----7/9----
D--------------------------------------------------------8/10---
A--------------------------------------------------------8/10---
E--------------------------------------------------------6/8----



    F      Bbm7
Michelle,    ma belle.  
  Eb                 Dº            C   
These are words that go together well,  
Dº     C  
my Michelle.  

Fm       Bbm7  
Michelle,    ma belle.  
Eb                Dº  
Sont les mots qui vont tres bien ensemble,  
  Dº         C  
tres bien ensemble.  

Fm   
I love you, I love you, I love you.  
  Ab7                 Db  
That's all I want to say  
C               Fm  
 until I find a way.  

       [Tocar intro]      
I will say the only words I know that  
             
you'll understand.  

Michelle, ma belle.                           
These are words that go together well,        
my Michelle.                                  
                                              








e|-------------------------------------------------------------|
B|-------------------------------------------------------------|
G|-------------------------------------------------------------|
D|---------8-10-11/6-6---5---5-6-8--------5-6--------6---------|
A|8---8-10-11-------------------------6-8---8----5-7---5--8-7--|
E|-------------------------------------------------------------|


Michelle, ma belle.                           
Sont les mots qui vont tres bien ensemble,    
tres bien ensemble.                           

I need you, I need you, I need you.  
I need to make you see,  
oh, what you mean to me.  

Until I do I'm hoping you,  
will know what I mean.  

I love you.  

I want you, I want you, I want you.  
I think you know by now  
I'll get to you somehow.  
Until I do I'm telling you so  
you'll understand  

And I will say the only words I know that  
you'll understand, my Michelle.

Fuente: Lacuerda