a b c d e f g h i j k l m n o p q r s t u v w x y z 0-9

Lucy In The Sky With Diamonds

The Beatles

			
1|-----------------------------|
2|-------17--17-------17--17---|
3|-----14-----------14---------|
4|---14----17--17-14----17--17-|
5|-----------------------------|
6|-----------------------------|








1|------11--11------11--11-----|
2|----9------------9-----------|
3|---8----11--11--8---11--11---|
4|-----------------------------|
5|-----------------------------|
6|-----------------------------|


para mi suena mejor con acustica.
pidanme cuales canciones quieren y se las ago

Fuente: tusacordes.com