a b c d e f g h i j k l m n o p q r s t u v w x y z 0-9

Love Me Do

The Beatles

G
C
D
			
 Riff 1: G7          C9              G7                      C9  
e|--12h13-11h12-9h10------------|-12h13-13-13-11h12-12-12-9h10-------------|
B|-------------------8-8-8-8-8--|------------------------------8-8--8-8-8--|
G|------------------------------|------------------------------------------|
D|------------------------------|------------------------------------------|
A|------------------------------|------------------------------------------|
E|------------------------------|------------------------------------------|

Riff 2: G7           C9           G7
e|--12h13--11h12--9h10---------8-7----------------8-7/3--|
B|----------------------8-8--8-----8-8-8--8-8-8-8--------|
G|-------------------------------------------------------|
D|-------------------------------------------------------|
A|-------------------------------------------------------|
E|-------------------------------------------------------|

Introdução:
Riff 1, Riff 2

 G             C      G              C
Love love me do, you know I love you
     G            C                        Riff 1 [G7 C G7 C]
I'll always be true, so pleeeease love me do, oh-oh love me do
 G             C      G              C
Love love me do, you know I love you
     G            C                        Riff 1 [G7 C G7 C]  
I'll always be true, so pleeeease love me do,    oh-oh love me do

D                 C         G
Someone to love, somebody new
D                 C             G
Someone to love, someone like you


Love love me do, you know I love you
I'll always be true, so pleeeease love me do,    oh-oh love me do

Solo:  D7 C G D7 C G Gsus G D7

      [Repete 2x]                [Repete 1x]
e|--5-5-3-2--3-1-0---|----------------8-7-------------|
B|-----------------3-|-8-8-8-88-8-8-8-----8-8-88-8-8--|
G|-------------------|--------------------------------|
D|-------------------|--------------------------------|
A|-------------------|--------------------------------|
E|-------------------|--------------------------------|

Love love me do, you know I love you
I'll always be true, so pleeeease love me do, oh-oh love me do
      G7          C       G7
Yes, love me do,   oh-oh love me do 

Fuente: Lacuerda