a b c d e f g h i j k l m n o p q r s t u v w x y z 0-9

Let It Be

The Beatles

			
Hola de nuevo, hoy les traigo algo de la mejor banda de la historia PARA MI GUSTO, para esta canción primero pondré solo las partes con sus respectivos punteos INTRO, VERSOS, CORO, SOLO, PASAJESPero sin la letra, la letra la pondré al final junto con los acordes que se usan para esta, por lo que podrán tocar la canción con el punteo que les daré o tocando acordes. Los acordes a utilizar son:

   C   G   Am  F   F6  Am/G Bb
e--0---3---0---1---1---0----1--|
B--1---3---1---1---3---1----3--|
G--0---0---2---2---2---2----3--|
D--2---0---2---3---3---2----3--|
A--3---2---0---3---1---0----1--|
E------3-------1---1---3-------|

Comencemos.

INTRO:

e----------------------------------0---0---------1----0--------------|
B--1---1---0---0---1---1---1---3---1---1-3---3---1----0--3--1---1----|
G--0---0---0---0---2---2---2---2-----0---4---4---2----0--2--0---0----|
D----2---2---0---0---2-------3---3---------5---5---------3--2-2---2--|
A--3---3-----------0---0-----------3---3--------------------3---3----|
E----------3---3---------3-1---1---------3---3---1-1-----------------|

VERSOS:

Tocamos el mismo INTRO:

e----------------------------------0---0---------1----0--------------|
B--1---1---0---0---1---1---1---3---1---1-3---3---1----0--3--1---1----|
G--0---0---0---0---2---2---2---2-----0---4---4---2----0--2--0---0----|   x2
D----2---2---0---0---2-------3---3---------5---5---------3--2-2---2--|
A--3---3-----------0---0-----------3---3--------------------3---3----|
E----------3---3---------3-1---1---------3---3---1-1-----------------|

CORO:

e--------------------------------------------------1----0--------------|
B--1---1---1---1---1---1---1---1---1---1---0---0---1----0--3--1---1----|
G--2---2---2---2---2---2---0---0---0---0---0---0---2----0--2--0---0----|
D----2---2---2---2---3---3---2---2---2---2---0---0---------3--2-2---2--|
A--0---0-------------------3---3---3---3----------------------3---3----|
E----------3---3---1---1-------------------3---3---1-1-----------------|

VERSOS:

Esta vez vamos a usar las mismas notas pero otra forma de tocar. (recuerden que esto es en estricto orden, versos, coro, versos, coro, compruébenlo tocándolo todo seguido con la canción)

e------x---------x---------x---------x-------0-x-0-------x-----1---0-----------|
B----1-x-1-----0-x-0-----1-x-1-----1-x-3-----1-x-1-----3-x-3---1---0--3--1-----|
G----0-x-0-----0-x-0-----2-x-2-----2-x-2-----0-x-0-----4-x-4---2---0--2--0-----| x2
D----2-x-2-----0-x-0-----2-x-2-----3-x-3-------x-------5-x-5----------3--2-----|
A--3---x---3-----x-----0---x---------x-----3---x---3-----x---------------3-----|
E------x-----3---x---3-----x---3-1---x---1-----x-----3---x---3-1-1-------------|

CORO:

Nuevamente, mismos acordes, pero esta vez usaremos un ritmo porque rasgaremos, el ritmo es rápido y lo pueden practicar con la canción para cogerlo mejor: ab, ab, abx, ar, ab, ar. este ritmo se toca una vez por cada acorde, el abx se toca de esta manera, rasgamos hacia abajo y con la palma golpeamos rápido cuando estemos deslizando, si no lo entienden simplemente hagan un muted golpeando las cuerdas. Al final hacemos la misma seguidilla de notas que usamos al final de cada frase de la canción.

           Am         Am/G       F          C
Let it   be, let it be, let it be, let it be

                     G           F Em/F F6 C
There will be an answer, let it be

          Am         Am/G       F          C
Let it   be, let it be, let it be, let it be

                  G              F Em/F F6 C
Whisper words of wisdom, let it be. 

PASAJE:

Esta es la parte que en la versión original toca un piano con un sonido como de iglesia.

e--1----0------------------------|
B--1----0--3--1--3--1--0---------|
G--2----0--2--0--3--2--0---2--0--|   x2
D----------3--2--3--2--0---3--2--|
A-------------3--1--0------3--3--|
E--1-1-----------------3---1--0--|

SOLOVERSIÓN DEL ÁLBUM:

e------------------------------------------------------------8-------------5---------|
B------------------------------------------------------------------------------------|
G-------------------------------------5-7b9-7b9r7-5-7-5--5/9---9/7-5-7-7b9---7b9r7-5-|
D--5h7-5----------------5-5---5~--5-7------------------------------------------------|
A--------7-5/3--3-3-3/7-----7--------------------------------------------------------|
E------------------------------------------------------------------------------------|

e--------------------------------------------------------8-10b12-10b12r10-8-10-8--|
B-------------------------------------8---8---8-10~-8-10--------------------------|
G--------------------------5-5~---5/9---9---9-------------------------------------|
D--7-5-7-5-------------5/7------5-------------------------------------------------|
A----------7-5-3-5-3~-------------------------------------------------------------|
E---------------------------------------------------------------------------------|

e--15b17r15---------------------|
B-----------15b17r15-13-15-13~--|
G-------------------------------|
D-------------------------------|
A-------------------------------|
E-------------------------------|

SOLOVERSIÓN COMERCIAL:

e--------------------------------------------------------------------------------|
B--------------------------------------------------------------8-8b10r8----------|
G--------------------------------------------------------5-7/9----------7b9r7-5--|
D----------2p0----------------5-7p5------------5-5-5-5h7-------------------------|
A------3-3-----3-3/5-5--3h5/7-------7p5/3--5/7-----------------------------------|
E--3h5---------------------------------------------------------------------------|

e----------------------------------------------------------------------------|
B----------------------------------------------------------8-8b10r8----------|
G--7b9r7p5----------------------------7/9-7-5h7--------7b9----------7b9r7-5--|
D----------7-5------------------5/7-5-----------7--5h7-----------------------|
A--------------7--------5/7-3h5----------------------------------------------|
E----------------8--3h5------------------------------------------------------|

e----------8----------10b12-10-8---------------------------|
B------------8b10r8----------------8---8b10r8--------------|
G------7/9----------9------------9---9--------7b8r7-5h7-5--|
D--5h7-----------------------------------------------------|
A----------------------------------------------------------|
E----------------------------------------------------------|

Ya lo que sigue es tocar lo mismo pero todo CORO y VERSOS finales se hace con el rasgueo, excepto los pasajes de cada estrofa y el final:

          Am         Am/G       F          C
Let it   be, let it be, let it be, let it be
                  G              F Em/F F6 C
Whisper words of wisdom, let it be.

      C                  G
And when the night is cloudy
           Am                 F           F6
There is still a light that shines on me
  C            G              F Em/F F6 C
Shine until tomorrow, let it be

   C              G
I wake up to the sound of music
 Am          F           F6
Mother Mary comes to me
  C                G              F Em/F F6 C
Speaking words of wisdom, let it be

          Am         Am/G       F          C
Let it   be, let it be, let it be, let it be
                     G           F Em/F F6 C
There will be an answer, let it be
          Am         Am/G       F          C
Let it   be, let it be, let it be, let it be
                  G              F Em/F F6 C
Whisper words of wisdom, let it be.

FINAL:

e--1----0------------------------|
B--1----0--3--1--3--1--0---------|
G--2----0--2--0--3--2--0---2--0--|   
D----------3--2--3--2--0---3--2--|
A-------------3--1--0------3--3--|
E--1-1-----------------3---1--0--|

                                 FIN

Gracias por leer y nos vemos en la siguiente tablatura, comenten, punteen, no insulten y ojala les haya gustado.

Canción anterior: Red Hot Chili Peppers / Californication

Próxima canción: AC/DC / You Shook Me All Night Long

Nos vemos....

Fuente: Tusacordes