a b c d e f g h i j k l m n o p q r s t u v w x y z 0-9

Let It Be

The Beatles

			
e--------------------------------------------------------------|
b--------------------------------------------------------------|
g--------------------------------------------------------------|
d--------------------------------------------5--7h5------------|
a-------3--3--3/7/5--3--5--5-------3h5--5/7----------7h5--3----|
e-----------------------------3h5------------------------------|

e--------------------------------------------------------------|
b-----------------------------8--------------------------------|
g---------------------5--7/9-----9/7--5--7--5------------------|
d------5--5-----5--7---------------------------7--5------------|
a--/7--------7---------------------------------------7--5--3---|
e--------------------------------------------------------------|

e--------------------------------------------------------------|
b------------------------------------------8--10--8------------|
g----------------/9--7--5--7------------9------------9--7--5---|
d---------/7--5---------------7---5--7-------------------------|
a--/7--3-------------------------------------------------------|
e--------------------------------------------------------------|

e---------------8------------/12--10--8------|
b------------------10--8-----------------10--|
g--------5--/9------------9------------------|
d--5--7--------------------------------------|
a--------------------------------------------|
e--------------------------------------------|

e---------------------------|
b--8-----10h8---------------|
g-----9--------9h7--5h7--5--|
d---------------------------|
a---------------------------|
e---------------------------|

Fuente: Tusacordes