a b c d e f g h i j k l m n o p q r s t u v w x y z 0-9

Let It Be

The Beatles

			
Esta es la melodia de uno de los mejores temas de The Beatles:

-------------|----0-0-0-------|-0-0-1-0-0-|-0----
-------------|-1-3-----3-3-1-1|1---------3|--3-1- ESTO VA X2
-0-0-0-0-2--0|0---------------|-----------|------
-----------2-|----------------|-----------|------
-------------|----------------|-----------|------
-------------|----------------|-----------|------
ESTRIBILLO:
0---0-3s5-0---|---0|0-0-1-0-0--0-----
-3-1-------3-1|----|---------3--3-1--
--------------|2-0-|-----------------
--------------|----|-----------------
--------------|----|-----------------
--------------|----|-----------------

VOTEN!!
DUARTE ORTIBA PONEME UN 10 culiadinn!!:P +
Dudas?: ignagazzaniga@hotmail.com

Fuente: tusacordes.com