a b c d e f g h i j k l m n o p q r s t u v w x y z 0-9

Let It Be

The Beatles

F
C
Bb
G
Am
			
 
primer solo

parte de teclado:

 F  C/E  G7/D  C  Bb  F/A  G  F  C   F   C   G  F  C
-5---3----1----0-----------------------------3--1--0-
-6---5----3----1--3----1---0-----1---1---1---0--1--1-
------------------3----2---0--2--0---2---0---0--2--0-
------------------------------3--2---3---2---0--3--2-
---------------------------------3---3---3---2--3--3-
-------------------------------------1-------3--1----

 C                    G               Am        F    C            
---------------------------------------------------------8---------
-------------------------------------------------------------------
-5----5-----------------------------5-7[9]-[9]7-5~---7/9---97-5h7-
-5h7--5----------------5-5---5--5/7--------------------------------
---------7-5--3--3-5/7-----7---------------------------------------
-------------------------------------------------------------------

 G               F                C                        G  
------5----------------------------------------------------------------
--------------------------------------------------------8------8-----8-
-7[9]----[9]7-5----------------------------5--5---5-7/9----7/9---7/9---
-----------------7p5-7p5--------------5h7-------7----------------------
--------------------------75-3h5-3------------------------------------
-----------------------------------------------------------------------

 Am         F                   C     G         F                     C
----------8-10[12]--[12]10-8h10-8----[17]15------------------------------
-10--8h10--------------------------0--------[17]15p13-15-[17]15p13h15-13-
-------------------------------------------------------------------------
-------------------------------------------------------------------------
-------------------------------------------------------------------------
-------------------------------------------------------------------------

segundo solo, durante coro:

        C            Am         C/G               F       C  
------------------------------------------5----------------------
----------------------------------------------------------8-8--8-
-5--5---5--5--5---5-----5-----5-----5-7[9]--[9]7--5-7-7/9--------
----5h7-------5h7----5h7---5h7--5h7------------------------------
-----------------------------------------------------------------
-----------------------------------------------------------------
        C         G          F        C  
-----------------------------------------
-15[13]-10-8h10-8------------------------
------------------97-5-7[9]-5------5-5~-
--------------------------------5h7------
-----------------------------------------
-----------------------------------------



 F  C/E  G7/D  C  Bb  F/A  G  F  C 
-5---3----1----0-----------------0-
-6---5----3----1--3----1---0-----1-
------------------3----2---0--2--0-
------------------------------3--2-
---------------------------------3-
-----------------------------------




C  G  Am  FMaj7  F6  C  G  F  C

       C              G                 Am          FMaj7    F6
When I find myself in times of trouble, Mother Mary comes to me
   C                 G              F  C
Speaking words of wisdom, let it be
    C              G                 Am              FMaj7    F6
And in my hour of darkness, She is standing right in front of me
   C                 G              F  G
Speaking words of wisdom, Let it be
       Am         C/G         F          C
Let it be, let it be, let it be, let it be
C                G              F  C
Whisper words of wisdom, let it be

     C              G                 Am          FMaj7    F6
And when the broken hearted people, Living in the world agree
   C                 G              F  C
There will be an answer, let it be
       C              G                 Am                  FMaj7    F6
But though they may be parted, There is still a chance that they may see
   C                 G              F  C
There will be an answer, let it be

       Am         C/G         F          C
Let it be, let it be, let it be, let it be
C                G              F  C
There will be an answer, let it be
       Am         C/G         F          C
Let it be, let it be, let it be, let it be
C                G              F  C
Whisper words of wisdom, let it be
				
F C/E G7/D C Bb F/A G F C  F  C  G F C

[Solo]

       Am         C/G         F          C
Let it be, let it be, let it be, let it be
C                G              F  C
Whisper words of wisdom, let it be
     C                 G                 Am                FMaj7    F6
And when the night is cloudy, There is still a light that shines on me
   C                 G              F  C
Shine on till tomorrow, let it be
       C              G                 Am          FMaj7    F6
I wake up to the sound of music, Mother Mary comes to me
   C                 G              F  C
Speaking words of wisdom, let it be

F C/E G7/D C Bb F/A G F C

 

Fuente: tusacordes.com