a b c d e f g h i j k l m n o p q r s t u v w x y z 0-9

Let It Be

The Beatles

			


     W                     W                   W                 
E||---------------------|-------------------|-------------------|
B||---------------------|-------------------|-------------------|
G||---------------------|-------------------|-------------------|
D||---------------------|-------------------|-------------------|
A||---------------------|-------------------|-------------------|
E||---------------------|-------------------|-------------------|


   H.           E  S S    E  S E  E  E.  E  S E.   
|----------------------|--------------------------|
|----------------------|--------------------1-3---|
|------------------0-0-|--0--0-2-----0---0--------|
|----------------------|----------2---------------|
|----------------------|--------------------------|
|----------------------|--------------------------|


  S S Q    S E  S Q    S S    S E.  E  S E  E.  S S S S  
--0-0-0--------------------|--0-0---1--0-0--------0-----|
-----------3-3--1-1--------|----------------3-------3-3-|
-------------------------0-|----------------------------|
---------------------------|----------------------------|
---------------------------|----------------------------|
---------------------------|----------------------------|


  S Q.     S Q.     S S    E  S E  E  E.  E  S E.     S S Q    S E  S Q    S S  
------------------------|--------------------------|--0-0-0--------------------|
--L-1------L------------|--------------------1-3---|-----------3-3--1-1--------|
----------------------0-|--0--0-2-----0---0--------|-------------------------0-|
------------------------|----------2---------------|---------------------------|
------------------------|--------------------------|---------------------------|
------------------------|--------------------------|---------------------------|


  S E.  E  S E  E.  S S S S    S Q.     S Q    S E  S  
--0-0---1--0-0--------0-----|------------------0------|
----------------3-------3-3-|--L-1------L--------3--1-|
----------------------------|-------------------------|
----------------------------|-------------------------|
----------------------------|-------------------------|
----------------------------|-------------------------|


  Q    S E  Q    S S S S S    Q    S E  Q.     S E   
-------0-3--5----L-3-3-0---|------------0------L----|
--L----------------------3-|--1---------------------|
---------------------------|-------2-0--------------|
---------------------------|------------------------|
---------------------------|------------------------|
---------------------------|------------------------|


  S S S S E  S S Q    S S S S    S Q.     S Q.     S S  
----0-0-0-1--0-0--------0-----|------------------------|
-----------------3--------3-3-|--L-1------L------------|
------------------------------|----------------------0-|
------------------------------|------------------------|
------------------------------|------------------------|
------------------------------|------------------------|


  E  S S S E  S S E  E  E  S    S S E.  S E.  S Q    E   
-----------------------------|--0-0-0-------------------|
-----------1---------1--3----|----------3-3---1-1-------|
--0--0-0-2----2-0-0----------|--------------------------|
-----------------------------|--------------------------|
-----------------------------|--------------------------|
-----------------------------|--------------------------|


  E  E  S S E  Q    S S S S    S Q.     S Q.     S S  
--0--0--1-3-0---------0-----|------------------------|
---------------3--------3-3-|--L-1------L------------|
----------------------------|------------------------|
----------------------------|----------------------2-|
----------------------------|------------------------|
----------------------------|------------------------|


  E  S E  S S Q    S S S E     S S Q    S E  E  S S S E   
----------------------------|--0-0-0------5--0--0--------|
----------1------------1-3--|-----------3---------3-1----|
--0--0-2----2-0----L--------|----------------------------|
----------------------------|----------------------------|
----------------------------|----------------------------|
----------------------------|----------------------------|


  E  E  S S E  Q    S S S S    S Q    S Q.     S E  S  
--0--0--1-0-0---------0-----|------------------0------|
---------------3--------3-3-|--L-1----L----------3--1-|
----------------------------|-------------------------|
----------------------------|-------------------------|
----------------------------|-------------------------|
----------------------------|-------------------------|


  Q    S S Q    S S S S S S    Q    S E  Q.     S S S  
-------0-3-5----L---3-3-0---|------------0------L-----|
--L-----------------------3-|--1----------------------|
----------------------------|-------2-0-------------0-|
----------------------------|-------------------------|
----------------------------|-------------------------|
----------------------------|-------------------------|


  E  E  E  E.  S E.  S S S    S Q.     S Q    S S S S  
--0--0--3--0---------0-----|--------------------0-----|
---------------3-------3-3-|--L-1------L----------3-1-|
---------------------------|--------------------------|
---------------------------|--------------------------|
---------------------------|--------------------------|
---------------------------|--------------------------|


  Q    S S Q    E  S S S S    Q    S E  Q.     S E   
-------0-3-5-------3-3-0---|------------0------L----|
--L----------------------3-|--1---------------------|
---------------------------|-------2-0--------------|
---------------------------|------------------------|
---------------------------|------------------------|
---------------------------|------------------------|


  E  S S E  E  S E.  S S S S    S Q.     S H         
--0--0-0-1--0--0-------0-----|----------------------|
-----------------3-------3-3-|--L-1------L----------|
-----------------------------|----------------------|
-----------------------------|----------------------|
-----------------------------|----------------------|
-----------------------------|----------------------|

SOLO.......................................

               S E  S  
---------------0------|
-----------------3--1-|
----------------------|
----------------------|
----------------------|
----------------------|


  Q    S S Q    S S S S S S    E  S S S E  Q    S E.  S  
-------0-3-5--------3-3-0---|--------------0----L-------|
--L-----------------------3-|--1--3-1-------------------|
------------------0---------|---------2-0-------------0-|
----------------------------|---------------------------|
----------------------------|---------------------------|
----------------------------|---------------------------|


  E  S S E  E  S E.  S S S S    S E.  Q.     Q    S S  
--0--0-0-1--0--0-------0-----|--------8---------------|
-----------------3-------3-3-|--L-1-------------------|
-----------------------------|----------------------0-|
-----------------------------|------------------------|
-----------------------------|------------------------|
-----------------------------|------------------------|


  E  S E  E  E.  E  S S S S    S S E.  S E.  S E  Q     
----------------------------|--0-0-0-------------------|
----------------------1-3---|----------3-3---1-3-------|
--0--0-2-----0---0----------|--------------------------|
----------2-----------------|--------------------------|
----------------------------|--------------------------|
----------------------------|--------------------------|


  E  E  S S E.  S E.  S S S    S Q.     S Q.     S S  
--0--0--1-3-0---------0-----|------------------------|
----------------3-------3-3-|--L-1------L------------|
----------------------------|------------------------|
----------------------------|----------------------2-|
----------------------------|------------------------|
----------------------------|------------------------|


  S S E  E  S E.  S E  S E     S S Q    S E  S S S Q     
----------------------------|--0-0-0----3-0-------------|
--------------------1--3----|----------------3-1-3------|
--0-0----2----0---0---------|---------------------------|
------------2---------------|---------------------------|
----------------------------|---------------------------|
----------------------------|---------------------------|


  E  E  E  S E  Q    S S S    S Q    S E.  E.  S E  S  
--0--0--1--0-0-------0-----|-----------8--------------|
----------------3------3-3-|--L-1----L---------5-3----|
---------------------------|---------------5--------5-|
---------------------------|--------------------------|
---------------------------|--------------------------|
---------------------------|--------------------------|


  Q    S S Q    E  S S S S    Q    S E  Q.     S S S  
---------3-0-------3-3-0---|------------0------L-----|
-------5-----------------3-|--1----------------------|
--L------------------------|-------2-0-------------0-|
---------------------------|-------------------------|
---------------------------|-------------------------|
---------------------------|-------------------------|


  E  E  E  S E  S E.  S S S    S E.  H        S S S S  
--0--0--1--0-0--------0-----|--------8----------0-----|
----------------3-------3-3-|--L-1--------------------|
----------------------------|---------------------7-5-|
----------------------------|-------------------------|
----------------------------|-------------------------|
----------------------------|-------------------------|


  Q    S S Q    E  S S S S    Q    S E  Q.     S E   
-------0-3-5-------3-3-0---|------------0------L----|
-------------------------3-|--1---------------------|
--L------------------------|-------2-0--------------|
---------------------------|------------------------|
---------------------------|------------------------|
---------------------------|------------------------|


  E  E  E  S E  E.  S S S S    S E.  S Q.     S S E  S  
--0--0--1--0-0--------0-----|----------8------L-0------|
----------------3-------3-3-|--L-1---------------------|
----------------------------|---------------------7--5-|
----------------------------|--------------------------|
----------------------------|--------------------------|
----------------------------|--------------------------|


  Q    S S Q    S S S S S S    E  S S S E  Q.     S E   
-------0-3-5--------3-3-0---|--------------0------L----|
--------------------------3-|--1--3-1------------------|
--L---------------0---------|---------2-0--------------|
----------------------------|--------------------------|
----------------------------|--------------------------|
----------------------------|--------------------------|


  E  S S E  S E.  E  S S S S    S E  H.           S   
--0--0-0-1--3-0--------0-----|-------8------------L-||
------------------3------3-3-|--L-1-----------------||
-----------------------------|----------------------||
-----------------------------|----------------------||
-----------------------------|----------------------||
-----------------------------|----------------------||

Fuente: tusacordes.com