a b c d e f g h i j k l m n o p q r s t u v w x y z 0-9

Let It Be

The Beatles

			

1:-3--3--------3---5---5-7-7-5-5--3-3--7-7--8-7-7-5-7-5----
2:-------5--3-------------------------------------------8--
3:--------------4------------------------------------------
4:---------------------------------------------------------
5:---------------------------------------------------------
6:---------------------------------------------------------

esto se repite y luego viene esto


1:--7--5----7--10--12-7-5----------7--7-7-8-7-7-5-7-5---
2:--------8----------------8-5-------------------------8
3:------------------------------7-----------------------
4:------------------------------------------------------
5:------------------------------------------------------
6:------------------------------------------------------
 
esto ta,bien se repite y ya esta espero que les alla ayudado

Fuente: tusacordes.com