a b c d e f g h i j k l m n o p q r s t u v w x y z 0-9

Imagine

The Beatles

			
DoMaj7 
      |---------------------------------
      |------------------0--------------
      |----0---0---0-----0--------------
      |----2---2---2--------------------
      |------3---3---3------------------

       
      |---------------------------------|
      |--------------------0------------|
      |---2---2---2----2-3--------------|
      |---3---3---3---------------------|
      |-----3---3---3-------------------|
      |---------------------------------|

      esto se repite 7 beses y luego sigue esto

                Bm
      |------------------------------------
      |-----2---2---2---2----0---0---0---0-
      |-----3---3---3---3----2---2---2---2-
      |-------3---3---3--------2---2---2---
      |------------------------------------
      |-----0----------------0-------------

      |------------------------------------
      |---0---0---0---0--------------------
      |---2---2---2---2--------------------
      |-----0---0---0----------------------
      |------------------------------------
      |---0--------------------------------



       luego se vuelve a repetir lo primero

      
            DoMaj7 
      |---------------------------------
      |------------------0--------------
      |----0---0---0-----0--------------
      |----2---2---2--------------------
      |------3---3---3------------------

       
      |---------------------------------|
      |--------------------0------------|
      |---2---2---2----2-3--------------|
      |---3---3---3---------------------|
      |-----3---3---3-------------------|
      |---------------------------------|Fuente: Tus acordes