a b c d e f g h i j k l m n o p q r s t u v w x y z 0-9

I Want To Hold Your Hand

The Beatles

			
I Want To Hold Your Hand
The Beatles
Bajo

Intro:
G|--------------------------------------------------|
D|--2------2------2---------------------------------|
A|-3-5----3-5----3-5--5-5-5-5-5-5-5-5-5-5-5-5-5-5-5-|
E|--------------------------------------------------|

Verso:
G|-----------------------------------------------|
D|-5---5---5-------------------------------------|
A|-------5----5---5-5-4-5-6-7---7-7-7--2---2-2-2-|
E|-----------------------------------------------|

G|-----------------------------------------------------|
D|-5---5---5-------------------------------------------|
A|-------5----5---5-5-4-5-6-7---7-7-7--2-2-2-2-2-2-2-2-|
E|-----------------------------------------------------|

Coro:
G|---------------------------------|
D|---------5---2-----------5---5---|
A|-3---5-----------3---5-----------|
E|---------------------------------|

Verso:
G|-----------------------------------------------|
D|-5---5---5-------------------------------------|
A|-------5----5---5-5-4-5-6-7---7-7-7--2---2-2-2-|
E|-----------------------------------------------|

G|-----------------------------------------------------|
D|-5---5---5-------------------------------------------|
A|-------5----5---5-5-4-5-6-7---7-7-7--2-2-2-2-2-2-2-2-|
E|-----------------------------------------------------|

Coro:
G|---------------------------------|
D|---------5---2-----------5---5---|
A|-3---5-----------3---5-----------|
E|---------------------------------|

Puente:
G|---------------------------------------------------------------------------------------------|
D|------------5---5-5---------------2---2-2---------------5---5-5------------------------------|
A|-5---5-5---------------3---3-3---------------5---5-5---------------3---3/4/5---3/4/5---3/4/5-|
E|---------------------------------------------------------------------------------------------|

G|-------------------------------|
D|-------------------------------|
A|-5-5-5-5-5-5-5-5-5-5-5-5-5-5-5-|
E|-------------------------------|

Verso:
G|-----------------------------------------------|
D|-5---5---5-------------------------------------|
A|-------5----5---5-5-4-5-6-7---7-7-7--2---2-2-2-|
E|-----------------------------------------------|

G|-----------------------------------------------------|
D|-5---5---5-------------------------------------------|
A|-------5----5---5-5-4-5-6-7---7-7-7--2-2-2-2-2-2-2-2-|
E|-----------------------------------------------------|

Coro:
G|---------------------------------|
D|---------5---2-----------5---5---|
A|-3---5-----------3---5-----------|
E|---------------------------------|

Puente:
G|---------------------------------------------------------------------------------------------|
D|------------5---5-5---------------2---2-2---------------5---5-5------------------------------|
A|-5---5-5---------------3---3-3---------------5---5-5---------------3---3/4/5---3/4/5---3/4/5-|
E|---------------------------------------------------------------------------------------------|


Verso:
G|-----------------------------------------------|
D|-5---5---5-------------------------------------|
A|-------5----5---5-5-4-5-6-7---7-7-7--2---2-2-2-|
E|-----------------------------------------------|

G|-----------------------------------------------------|
D|-5---5---5-------------------------------------------|
A|-------5----5---5-5-4-5-6-7---7-7-7--2-2-2-2-2-2-2-2-|
E|-----------------------------------------------------|

Final:
G|---------------------------------------------------------------------------|
D|---------5---2-----------5------------------------------2------2----5------|
A|-3---5-----------3---5-------2-2-2-2-2-2-2-2---3---5---3-5----3-5----------|
E|---------------------------------------------------------------------------|

Fuente: tusacordes.com